Oops, an error
Loading. Please wait.

Frontin Tab

version 1
version 1

Whole song

Interactive

9,657 views 24 this week
1 commentread comment
1 2 3 4 5
2 more votes to show rating
add to favorites
launch autoscroll
font size
0
reset
how to read this tab
guitar tuner
Autoscroll
slow
fast
+/-
esc
set tempo
stop
Help us to improve Ultimate-Guitar.com Take our survey!
×
The chords, in order shown below, are these:

-F (add 9)
-Am
-Cmaj7
-F(add9)
Repeat 2x

-G (add 9)
-Bm
-Dmaj7
-G (add 9)
Repeat 2x

The bridge is:

Bm9 (whole bar)
Dm9 (whole bar)
Fm9 (whole bar)
Cm9 (whole bar)


  Repeat 2X   Repeat 2X 
e|--3-5-7-3-|--5-7-9-7-|-2----|--5-|--8-|--3-|
B|--1-5-5-1-|--3-7-7-7-|-2----|--5-|--8-|--3-|
G|--2-5-5-2-|--4-7-7-7-|-2----|--5-|--8-|--3-|
D|--3-----3-|--5-------|-0----|--3-|--6-|--1-|
A|----------|----------|-2----|--5-|--8-|--3-|
E|--1-------|--3-------|------|----|----|----|
Suggest correction
Give kudos to tab author, rate the tab!
1 2 3 4 5
comments
print report bad tab
1 comment total.
0 reply
anamorican 10 Apr 22, 2014 08:34 AM

I think it goes back to the G (add9) in the second half of the verse.


Repeat 2X Repeat 2X
e|--3-5-7-3-|--5-7-9-7-5-|-2----|--5-|--8-|--3-|
B|--1-5-5-1-|--3-7-7-7-3-|-2----|--5-|--8-|--3-|
G|--2-5-5-2-|--4-7-7-7-4-|-2----|--5-|--8-|--3-|
D|--3-----3-|--5-------5-|-0----|--3-|--6-|--1-|
A|----------|------------|-2----|--5-|--8-|--3-|
E|--1-------|--3---------|------|----|----|----|

guest
You may want to rate the tab now too:
select rating
Wanna post a correction for this tab? Suggest correction