Oops, an error
Loading. Please wait.

Hanging On The Telephone tab

version 1
version 1

Whole song

16,171 views 63 this week
1 commentread comment
1 2 3 4 5
x 5
add to favorites
×
Save as Personal and add changes to this tab that will be seen only by you. Learn more ›
×
You can save this tab as Personal to edit and correct it or add notes. All changes will be seen only by you. Learn more »
launch autoscroll
font size
0
reset
how to read this tab
guitar tuner
edit
Autoscroll
slow
fast
+/-
esc
set tempo
stop
Author
[Riff 1]
e|-------------------------6------------------------------------|
B|---6-6-6-6-------8p6-6s8--------------------------------------|
G|---3-3-3-3--5-3-----------------------------------------------|
D|--------------------------------------------------------------|
A|--------------------------------------------------------------|
E|--------------------------------------------------------------|

I'm in the phone booth, it's the one across the hall.

[Riff 1]
e|-------------------------6------------------------------------|
B|---6-6-6-6-------8p6-6s8--------------------------------------|
G|---3-3-3-3--5-3-----------------------------------------------|
D|--------------------------------------------------------------|
A|--------------------------------------------------------------|
E|--------------------------------------------------------------|

If you don't answer, I'll just ring it off the wall.

[Riff 2]                                          *       +
e|--------------------------------------------------------------|
B|---6-6-6-6----------------------------------------------------|
G|---3-3-3-3--3h5p3---------------------------------------------|
D|------------------3h5p3--------0-1--0------------0----------0-|
A|------------------------1h3p1-1--------1--1-3---1----------1--|
E|---------------------------------------------3------3-1-3-----|

e|--------------------------------------6-----------------------|
B|--------------------------------6s8-8-------------------------|
G|--------------------------------------------------------------|
D|--0-1--0------------0---------0-------------------------------|
A|-1--------1--1-3---1---------1--------------------------------|
E|----------------3------3-1-3----------------------------------|


I know he's there, but I just had to call.

Don't leave me hanging on the telephone,
Don't leave me hanging on the telephone!

[Riff 1]
e|-------------------------6------------------------------------|
B|---6-6-6-6-------8p6-6s8--------------------------------------|
G|---3-3-3-3--5-3-----------------------------------------------|
D|--------------------------------------------------------------|
A|--------------------------------------------------------------|
E|--------------------------------------------------------------|

I heard your mother, now she's going out the door.

[Riff 1]
e|-------------------------6------------------------------------|
B|---6-6-6-6-------8p6-6s8--------------------------------------|
G|---3-3-3-3--5-3-----------------------------------------------|
D|--------------------------------------------------------------|
A|--------------------------------------------------------------|
E|--------------------------------------------------------------|

Did she go to work or just go to the store?

[Riff 3]
e|--------------------------------------------------------------|
B|---6-6-6-6----------------------------------------------------|
G|---3-3-3-3--3h5p3---------------0-------3-3-----------0-------|
D|------------------3h5p3--------1-1--3h5-----5-3------1-1--3h5-|
A|------------------------1h3p1-3-----------------3-1-3---------|
E|--------------------------------------------------------------|

e|--------------------------------------------------------------|
B|--------------------------------------------------------------|
G|-3-3-----------0-----0----------------------------------------|
D|-----5-3------1-1---1--0-1--0---------------------------------|
A|---------3-1-3---3-3----------1--1-3--------------------------|
E|------------------------------------3-------------------------|

All those things she said, I told you to ignore.

Oh why can't we talk again?
Oh why can't we talk again?
Oh why can't we talk again?

[Riff 2]                                          *       +
e|--------------------------------------------------------------|
B|---6-6-6-6----------------------------------------------------|
G|---3-3-3-3--3h5p3---------------------------------------------|
D|------------------3h5p3--------0-1--0------------0----------0-|
A|------------------------1h3p1-1--------1--1-3---1----------1--|
E|---------------------------------------------3------3-1-3-----|

e|--------------------------------------6-----------------------|
B|--------------------------------6s8-8-------------------------|
G|--------------------------------------------------------------|
D|--0-1--0------------0---------0-------------------------------|
A|-1--------1--1-3---1---------1--------------------------------|
E|----------------3------3-1-3----------------------------------|


Don't leave me hanging on the telephone,
Don't leave me hanging on the telephone!

[Riff 1]
e|-------------------------6------------------------------------|
B|---6-6-6-6-------8p6-6s8--------------------------------------|
G|---3-3-3-3--5-3-----------------------------------------------|
D|--------------------------------------------------------------|
A|--------------------------------------------------------------|
E|--------------------------------------------------------------|

It's good to hear your voice, you know it's been so long.

[Riff 1]
e|-------------------------6------------------------------------|
B|---6-6-6-6-------8p6-6s8--------------------------------------|
G|---3-3-3-3--5-3-----------------------------------------------|
D|--------------------------------------------------------------|
A|--------------------------------------------------------------|
E|--------------------------------------------------------------|

If I don't get your calls then everything goes wrong.

[Riff 2]                                          *       +
e|--------------------------------------------------------------|
B|---6-6-6-6----------------------------------------------------|
G|---3-3-3-3--3h5p3---------------------------------------------|
D|------------------3h5p3--------0-1--0------------0----------0-|
A|------------------------1h3p1-1--------1--1-3---1----------1--|
E|---------------------------------------------3------3-1-3-----|

e|--------------------------------------6-----------------------|
B|--------------------------------6s8-8-------------------------|
G|--------------------------------------------------------------|
D|--0-1--0------------0---------0-------------------------------|
A|-1--------1--1-3---1---------1--------------------------------|
E|----------------3------3-1-3----------------------------------|


I want to tell you something you've known all along.

[Riff 2]                                          *       +
e|--------------------------------------------------------------|
B|---6-6-6-6----------------------------------------------------|
G|---3-3-3-3--3h5p3---------------------------------------------|
D|------------------3h5p3--------0-1--0------------0----------0-|
A|------------------------1h3p1-1--------1--1-3---1----------1--|
E|---------------------------------------------3------3-1-3-----|

e|--------------------------------------6-----------------------|
B|--------------------------------6s8-8-------------------------|
G|--------------------------------------------------------------|
D|--0-1--0------------0---------0-------------------------------|
A|-1--------1--1-3---1---------1--------------------------------|
E|----------------3------3-1-3----------------------------------|


Don't leave me hanging on the telephone!
[Riff 1]
e|-------------------------6------------------------------------|
B|---6-6-6-6-------8p6-6s8--------------------------------------|
G|---3-3-3-3--5-3-----------------------------------------------|
D|--------------------------------------------------------------|
A|--------------------------------------------------------------|
E|--------------------------------------------------------------|

I had to interrupt and stop this conversation.

[Riff 1]
e|-------------------------6------------------------------------|
B|---6-6-6-6-------8p6-6s8--------------------------------------|
G|---3-3-3-3--5-3-----------------------------------------------|
D|--------------------------------------------------------------|
A|--------------------------------------------------------------|
E|--------------------------------------------------------------|

Your voice across the line gives me a strange sensation.

[Riff 3]
e|--------------------------------------------------------------|
B|---6-6-6-6----------------------------------------------------|
G|---3-3-3-3--3h5p3---------------0-------3-3-----------0-------|
D|------------------3h5p3--------1-1--3h5-----5-3------1-1--3h5-|
A|------------------------1h3p1-3-----------------3-1-3---------|
E|--------------------------------------------------------------|

e|--------------------------------------------------------------|
B|--------------------------------------------------------------|
G|-3-3-----------0-----0----------------------------------------|
D|-----5-3------1-1---1--0-1--0---------------------------------|
A|---------3-1-3---3-3----------1--1-3--------------------------|
E|------------------------------------3-------------------------|

I'd like to talk when I can show you my affection.

Oh, I can't control myself!
Oh, I can't control myself!
Oh, I can't control myself!

Don't leave me hanging on the telephone.

[Riff 4]
e|--------------------------------------------------------------|
B|--------------------------------------------------------------|
G|-------3-3-3-3-----------------3-3-3-3------------------------|
D|--0----3-3-3-3------------0----3-3-3-3------------0-----------|
A|-1-------------3-1-------1-------------3-1-------1------------|
E|----3-1------------3-1--3---3-1------------3-1--3---3-1-------|

e|---------------------------------------3----------------------|
B|---------------------------------------3----------------------|
G|-3-3-3-3-------------------------------0----------------------|
D|-3-3-3-3-------0-1---0-----------------0----------------------|
A|---------3-1--------------1-----3------x----------------------|
E|-------------3-------------------------3----------------------|

Hang up and run to me! Oh!
Hang up and run to me! Oh!
Hang up and run to me! Oh!
Hang up and run to me! Oh Oh oh oh oh!
Hang up and run to me!


************************************

| p  Pull-off
| h  Hammer-on
| x  Dead note

************************************

            
            
Suggest correction
Creating personal tab
Creating personal tab
You can edit any tab online and save it as your Personal.

You can edit, replace or remove any tab part or add personal notes – all changes will be seen only by you.

Personal tabs can be accessed anytime from any device, even offline.
Learn more »
comments
print report bad tab
1 comment total.
0 reply
mc lowe 10 Jan 27, 2015 02:01 PM

this is the real version!

guest
You may want to rate the tab now too:
select rating
Wanna post a correction for this tab? Suggest correction