Oops, an error
Loading. Please wait.

The Whistle Is Blowing Tab

31 views 1 this week
no commentswrite comment
1 2 3 4 5
3 more votes to show rating
add to favorites
launch autoscroll
font size
0
reset
how to read this tab
guitar tuner
Autoscroll
slow
fast
+/-
esc
set tempo
stop
Help us to improve Ultimate-Guitar.com Take our survey!
×
Author
Difficulty
intermediate
About this tab version
First solo tab for this song. Was this info helpful? Yes No
-------------------------------------------------------------------------------
                  THE WHISTLE IS BLOWING - The New Basement Tapes
-------------------------------------------------------------------------------

Tabbed by: Macheeoo
E-mail: macheeoo@yahoo.com

Tuning:   Standard NO CAPO 


[Solo - 3:20]
e|---------------------------------------------------------------------------|
B|---------------------------------------------------------------------------|
G|---------------------------------------------------------------5\4-/7~-----|
D|-----------------------------------------2h3p2-0---0h2-/5-5-7--------------|
A|-------------------0-2-2-3-0---2-3----3----------3-------------------------|
E|-0-1-2-3~--0-3-4~------------3-----1~--------------------------------------|

e|---------------------------------------------------------------15-17~-15~--|
B|-------------13-12-13/15-----15h16h17~--17h18-17h18h19h20------------------|
G|-9-10-12-----------------12-------------------------------17~--------------|
D|---------14----------------------------------------------------------------|
A|---------------------------------------------------------------------------|
E|---------------------------------------------------------------------------|

e|-13-12-15~--13-1212\10-10~---------------------------------------5---7---8-|
B|---------------------------13-12-15-12h13p12\10-12h13----------6---6---6---|
G|------------------------------------------------------9~\7\5-5-------------|
D|---------------------------------------------------------------------------|
A|---------------------------------------------------------------------------|
E|---------------------------------------------------------------------------|

e|-10-12---------13-12------------------10---------------------------------1-|
B|---------------------13---13p12----------13-13~--------------------------1-|
G|-------12~--12---------12------12--12----12-12~--12h14-12h12-12~---------2-|
D|-------------------------------------------------14h14-12h14-10~-----0-2-3-|
A|-------------------------------------------------------------------3-----3-|
E|-------------------------------------------------------------------------1-|


END
Suggest correction
Give kudos to tab author, rate the tab!
1 2 3 4 5
comments
print report bad tab
guest
You may want to rate the tab now too:
select rating
Wanna post a correction for this tab? Suggest correction