Oops, an error
Loading. Please wait.

Dead End Countdown bass

version 1
version 1

Whole song

1,303 views 1 this week
1 commentread comment
1 2 3 4 5
1 last vote to show rating
add to favorites
×
Save as Personal and add changes to this tab that will be seen only by you. Learn more ›
×
You can save this tab as Personal to edit and correct it or add notes. All changes will be seen only by you. Learn more »
launch autoscroll
font size
0
reset
guitar tuner
edit
Autoscroll
slow
fast
+/-
esc
set tempo
stop
The New Cities
Dead end Countdown

This is my first tab, sounds right when you play along, takes a while to get the 
timing but its very easy after that.
Standard tuning EADG 
Enjoy

Intro
G---------------------------------------11-11-9----------------------|
D-9-9-11-12----------11-12---9-9-11-12----------12-------------------|
A--------------12-12-------------------------------------------------|
E--------------------------------------------------------------------|

Intro 2 x2
G-------------11-9-11-9----------------------------------------------|
D-9-9-11-12-9-----------12-11-------9-11-12--------------------------|
A-----------------------------12-12----------------------------------|
E--------------------------------------------------------------------|

Verse x3
G--------------------------------------------------------------------|
D--------------------------------------------------------------------|
A----------10101010101010-------------------1212121212121212---------|
E—77777777-----------------1010101010101010--------------------------|

Pre-chorus  
G--------------------------------------------------------------------|
D--------------------------------------------------------------------|
A----------10101010101010101010101010101010-1212121212---------------|
E-77777777-----------------------------------------------------------|

Chorus x2  
G--------------------------------------------------------------------|
D--------------------------------------------------------------------|
A--------------------------------------------------------------------|
E-77777777-33333333-55555555-22222222--------------------------------|

Post Chorus 
G--------------------------------------------------------------------|
D-9-9-11-12------------11-12-----------------------------------------|
A-----------------12-12----------------------------------------------|
E--------------------------------------------------------------------|

Verse x3
G--------------------------------------------------------------------|
D--------------------------------------------------------------------|
A----------10101010101010-------------------1212121212121212---------|
E—77777777-----------------1010101010101010--------------------------|

Pre-chorus  
G--------------------------------------------------------------------|
D--------------------------------------------------------------------|
A----------10101010101010101010101010101010-1212121212---------------|
E-77777777-----------------------------------------------------------|

Chorus x2  
G--------------------------------------------------------------------|
D--------------------------------------------------------------------|
A--------------------------------------------------------------------|
E-77777777-33333333-55555555-22222222--------------------------------|

Post Chorus 
G--------------------------------------------------------------------|
D--------------------------------------------------------------------|
A--------------------------------------------------------------------|
E-777---555-222----777---555-222-------------------------------------|

Bridge  
G--------------------------------------------------------------------|
D--------------------------------------------------------------------|
A--------------------------------------------------------------------|
E-7-3-5-2-7-3-5-2-22-22-22-22----------------------------------------|

Chorus x4  
G--------------------------------------------------------------------|
D--------------------------------------------------------------------|
A--------------------------------------------------------------------|
E-77777777-33333333-55555555-22222222--------------------------------|

Post Chorus 
G--------------------------------------------------------------------|
D--------------------------------------------------------------------|
A--------------------------------------------------------------------|
E-777---555-222----777---555-222-------------------------------------|

End On
G--------------------------------------------------------------------|
D--------------------------------------------------------------------|
A--------------------------------------------------------------------|
E-777\---------------------------------------------------------------|

            
            
Suggest correction
Creating personal tab
Creating personal tab
You can edit any tab online and save it as your Personal.

You can edit, replace or remove any tab part or add personal notes – all changes will be seen only by you.

Personal tabs can be accessed anytime from any device, even offline.
Learn more »
Give kudos to tab author, rate the tab!
1 2 3 4 5
comments
print report bad tab
1 comment total.
0 reply
Craig-Bass1995 177 Apr 29, 2010 10:09 AM

Epic tab, good sir! :)

guest
You may want to rate the tab now too:
select rating
Wanna post a correction for this tab? Suggest correction