Oops, an error
Loading. Please wait.

Leaders Of The Misled bass

316 views 1 this week
no commentswrite comment
1 2 3 4 5
3 more votes to show rating
add to favorites
×
Save as Personal and add changes to this tab that will be seen only by you. Learn more ›
×
You can save this tab as Personal to edit and correct it or add notes. All changes will be seen only by you. Learn more »
launch autoscroll
font size
0
reset
guitar tuner
edit
Autoscroll
slow
fast
+/-
esc
set tempo
stop
Author
Difficulty
I saw these guys supporting TwentyTwenty, and they blew me away. Absolutely love them. 
there's any problems or corrections just comment them underneath :)


Intro


G|-------|-------------------------------------------------------------------------------|x2
A|-------|-------------------7-7-7-7-7-7-7-7---------------------------------------------|
E|--4-4--|--4-4-4-4-4-4-4-4-------------------7-7-7-7-7-7-7-7--2-2-2-2-2-2-2-2-----------|
         Bop, bop, bop, wha ahh ahh oh, Bop, bop, bop, wha ahh ahh oh, Bop, bop, bop, 
ahh ahh oh
          Bop, bop, bop, wha ahh ahh oh

Verse 1


G|----------------------------------------------------------------------------------------------|
D|----------------------------------------------------------------------------------------------|
A|----------------------------------------------------------------------------------------------|
E|------4-\------------------------------------------------------7-7------7--7------------------|
       I cannot forget those days (days) Heavy like my feet were stuck in concrete

e|----------------------------------------------------------------------------------------------|
B|----------------------------------------------------------------------------------------------|
G|----------------------------------------------------------------------------------------------|
D|----------------------------------------------------------------------------------------------|
A|----------------------------------------------------------------------------------------------|
E|------4-\--------------------------------------------------------------7---7------------------|
       Locked into a life-delay (lay) Where everything I’d see was blind ambition


G|---------------------------------------------------------------------------------------|
D|---------------------------------------------------------------------------------------|
A|----------------------7-7-7-7-7-7-7-7--------------------------------------------------|
E|-----4-4-4-4-4-4-4-4-------------------7-7-7-7-7-7-7-7--2-2-2-2-2-2-2-2----------------|
        Just when this story seems to end   Our  world   expands and then extends


G|----------------------------------------------------------------------------------------------|
D|----------------------------------------------------------------------------------------------|
A|--------------------------------------------14-14-14-14-14-14-14-14--9--9--9--9--9--9--9--9---|
E|---4-4------------------7-7-------------------------------------------------------------------|

      Even if my words are faint	      You will always hear me say


Chorus:

G|-----------------------------------------------------------------------------|
D|-----------------------------------------------------------------------------| x2
A|-------------------7-7-7-7-7-7-7-7-------------------------------------------|
E|--4-4-4-4-4-4-4-4-------------------7-7-7-7-7-7-7-7--2-2-2-2-2-2-2-2---------|

 (1) Tell me more,tell me more Why keep moving ahead?  (When we both know, It’s no way 
go)
 (2) Tell me have we become  The leaders of the misled in the end?


G|--------------------------------------------------------------------------------|
D|--------------------------------------------------------------------------------|
A|--------------------------------------------------------------------------------|
E|--4-4-4-4-4-4-4-4--0-0-0-0-0-0-0-0--7-7-7-7-7-7-7-7--2-2-2-2-2-2-2-2------------|

    Bop, bop, bop, wha ahh ahh oh, Bop, bop, bop, wha ahh ahh oh
    Bop, bop, bop, wha ahh ahh ohhhhhhhh

Verse

G|-----------------------------------------------------------------------------|
D|-----------------------------------------------------------------------------|
A|-------------------7-7-7-7-7-7-7-7-------------------------------------------|
E|--4-4-4-4-4-4-4-4-------------------7-7-7-7-7-7-7-7--2-2-2-2-2-2-2-2---------|


       Let's hold on and take a breath  Take a step away and break transmission

G|-----------------------------------------------------------------------------|
D|-----------------------------------------------------------------------------|
A|-------------------7-7-7-7-7-7-7-7-------------------------------------------|
E|--4-4-4-4-4-4-4-4-------------------7-7-7-7-7-7-7-7--2-2-2-2-2-2-2-2---------|

      We've walked into another mess  Cause I can never turn down propositions


G|-----------------------------------------------------------------------------|
D|-----------------------------------------------------------------------------|
A|-------------------7-7-7-7-7-7-7-7-------------------------------------------|
E|--4-4-4-4-4-4-4-4-------------------7-7-7-7-7-7-7-7--2-2-2-2-2-2-2-2---------|
        Just when our story seems to end  You've gone and done it all again

G|----------------------------------------------------------------------------------------------|
D|----------------------------------------------------------------------------------------------|
A|--------------------------------------------14-14-14-14-14-14-14-14--9--9--9--9--9--9--9--9---|
E|---4-4------------------7-7-------------------------------------------------------------------|

     And even if my words are faint           You will always hear me say


[NO BASS]

Is this a chain reaction? Let's not fight it...


Chorus:

G|-----------------------------------------------------------------------------|
D|-----------------------------------------------------------------------------| x2
A|-------------------7-7-7-7-7-7-7-7-------------------------------------------|
E|--4-4-4-4-4-4-4-4-------------------7-7-7-7-7-7-7-7--2-2-2-2-2-2-2-2---------|

 (1) Tell me more,tell me more Why keep moving ahead?  (When we both know, It’s no way 
go)
 (2) Tell me have we become  The leaders of the misled in the end?

Bridge:

G|--------------------------------------------------------------------------------------|
D|--------------------------------------------------------------------------------------|
A|--------------------------------------------------------------------------------------|
E|---0-0-0-0--7-7-7-7--2-2-2-2--4-4-4-4--2-2-2-2----0-0-0-0--7-7-7-7--2-2-2-2--4-4--2-2-|

    Is this a chain reaction? Let's not fight it... This game is taking over, can't 
it

G|----------------------------------------------------------------------------------------------|
D|----------------------------------------------------------------------------------------------|
A|------------7-7-7-7--9--9--9--9---11-11--9--9-------------------------------------------------|
E|---4-4-4-4-------------------------------------------------------7 let ring-------------------|

     Let it go, we both know  Intentions are never quite what they seem

G|----------------------------------------------------------------------------------------------|
D|----------------------------------------------------------------------------------------------|
A|----------------------------------------------------------------------------------------------|
E|-----4 let ring-------------------------------------------------------------------------------|

      What can we lose? What can we gain?   Lying to ourselves makes it easy to explain

G|----------------------------------------------------------------------------------------------|
D|----------------------------------------------------------------------------------------------|
A|----------------------7-7-\-------------------------------------------------------------------|
E|-----4-4-\-----------------------------------7-7--7-7-----------------------------------------|

       What's there to prove? It's all the same

G|----------------------------------------------------------------------------------------------|
D|----------------------------------------------------------------------------------------------|
A|-------------------7-7-7-7-7-7-7-7------------------------------------------------------------|
E|--4-4-4-4-4-4-4-4-------------------7-7-7-7-7-7-7-7---2---------------------------------------|
   Living in a past that you know will never last  You will always hear me say!!


Chorus: (outro)

G|-----------------------------------------------------------------------------|
D|-----------------------------------------------------------------------------| x2
A|-------------------7-7-7-7-7-7-7-7-------------------------------------------|
E|--4-4-4-4-4-4-4-4-------------------7-7-7-7-7-7-7-7--2-2-2-2-2-2-2-2---------|

 (1) Tell me more,tell me more Why keep moving ahead?  (When we both know, It’s no way 
go)
 (2) Tell me have we become  The leaders of the misled in the end?

G|----------------------------------------------------------------------------------------------|
D|----------------------------------------------------------------------------------------------|
A|----------------------------------------------------------------------------------------------|
E|--4-4-4-4-4-4-4-4--0-0-0-0-0-0-0-0--7-7-7-7-7-7-7-7--2-2-2-2-2-2-2-2--------------------------|

    Bop, bop, bop, wha ahh ahh oh, Bop, bop, bop, wha ahh ahh oh, Bop, bop, bop, wha ahh 
oh
    Bop, bop, bop, wha ohh  Wha ohh

e|-------------------|
B|-------------------|
G|-------------------|
D|-------------------|
A|-------------------|
E|-----4 let ring----|
Suggest correction
Creating personal tab
Creating personal tab
You can edit any tab online and save it as your Personal.

You can edit, replace or remove any tab part or add personal notes – all changes will be seen only by you.

Personal tabs can be accessed anytime from any device, even offline.
Learn more »
Give kudos to tab author, rate the tab!
1 2 3 4 5
comments
print report bad tab
guest
You may want to rate the tab now too:
select rating
Wanna post a correction for this tab? Suggest correction