Oops, an error
Loading. Please wait.

Sweet Talk Sweet Talk Tab

6,083 views 6 this week
no commentswrite comment
1 2 3 4 5
excellent!
x 3
add to favorites
launch autoscroll
font size
0
reset
how to read this tab
guitar tuner
Tab Pro tools
  • play this tab
  • loop segment
  • change instrument
  • show fretboard
  • metronome
×
Best way to learn
"Sweet Talk Sweet Talk"
Autoscroll
slow
fast
+/-
esc
set tempo
stop
Contributor
Difficulty
novice
-------------------------------------------------------------------------------
			     Sweet Talk, Sweet Talk - The New Pornographers
-------------------------------------------------------------------------------
Tabbed by:notimel3ft
Email:notimel3ft@gmail.com

Tuning: Standard

Intro: G

Leadish:

e|-------------------|       
B|-------------------|       
G|-------5-5-4-4-----|        
D|---5-5---------4-4-|2x     
A|-------------------|      	
E|-------------------|      	

Verse 1:

Lead for Verse 1, 2 and 3:
-----------------------------------------------------------------------}
e|-------------------|       e---------------------------------------| }
B|-------------------|       B--------------------------------3-3-3-3| } 
G|-------5-5-4-4-----|       G---------4-4-2-2-----------4-4---------| } 2x
D|---5-5---------4-4-|2x     D-----5-5---------4-4---2-2-------------| }
A|-------------------|       A---------------------------------------| }
E|-------------------|       E---------------------------------------| }
                                                                       }

Rythm: (if you want to play chords)

G
A mistake on the part of nature,

G                                       C
You're so fabled, so fair, just sit anywhere,

   
I've pencil-sketched the scene,

Em             D
It's feeling byzantine

G
Mistakes on the part of nature,

G                                          C
The living proof of what they're calling love,


Uncertain sideways streets,

Em                             D
Where things that don't match meet

e|-----------------|
B|-----------------|
G|-----------------| 8x
D|-----------------|
A|-------555555----|
E|--3-3-3----------|


--0:49--

    G  
    G  

e|-------------------|       
B|-------------------|       
G|-------5-5-4-4-----|        
D|---5-5---------4-4-|2x     
A|-------------------|      	
E|-------------------| 

Verse 2: 

G                           
A mistake on the part of nature,

G				         C
You are a tall glass, a blast from the past,


Where things were simpler then,

Em            D
You ask exactly when

G
A mistake on the part of nature,

G                                      C
It's forgiven, moved on, won't wear my son,


They said to walk that street,

Em               D
That would feel byzantine

--1:25--

Rythm: 2x 

    G                       C      
    G                       D

Lead:

e|-------------------------------------------------------------|
B|--8-8-8\15-15-15-15-15-15/8-8-8\15-15-15-15-15-15------------| 
G|-------------------------------------------------------------| 4x
D|-------------------------------------------------------------|
A|-------------------------------------------------------------|
E|-------------------------------------------------------------|

Chorus:

Em                    A               D
Silhouette tell me a tall tale, go, shout it out,

C                          G
Silhouette shout from the top,

G 		       C
   Sweet talk, Sweet talk
G                          C 
  Yeah, Sweet talk, Sweet talk



--1:53--

Rythm: 2x
    G                       C      
    G                       D

Lead: 
e|-------------------------------------------------------------|
B|--8-8-8\15-15-15-15-15-15/8-8-8\15-15-15-15-15-15------------|
G|-------------------------------------------------------------| 4x
D|-------------------------------------------------------------|
A|-------------------------------------------------------------|
E|-------------------------------------------------------------|

--2:07--

     G
     G		

e|-------------------|       
B|-------------------|         
G|-------5-5-4-4-----|        
D|---5-5---------4-4-|2x  
A|-------------------|  	
E|-------------------|  




Verse 3: 

G  
Amnesia becomes ambition,

G                           C
Ambition becomes a new sort of,


Try name simplicity,

Em           D  
Like always byzantine

G               
A mistake on the part of nature,

G				      C
It's forgiven, move on, won't wear my son,


They said to walk that street,

Em               D  
That would feel byzantine




Chorus:

Em                    A               D
Silhouette tell me a tall tale, go, shout it out,

C                          G
Silhouette shout from the top,

G 		       C
   Sweet talk, Sweet talk
G                          C 
  Yeah, Sweet talk, Sweet talk


Em                    A               D
Silhouette tell me a tall tale, go, shout it out,

C                          G
Silhouette shout from the top,

G 		       C
   Sweet talk, Sweet talk
G                          C 
  Yeah, Sweet talk, Sweet talk


Outro:

e|----------------------------------------------------------------------|
B|----------------------------------------------------------------------|
G|----------------------------------------------------------------------|
D|----------------------------------------------------------------------|
A|-------3-2-----3-2-----5-3-2-----3-2------3-2-----5-3-----------------|
E|-3-2-3-----2-3------3--------2-3------2-3------3----------------------|

e|----------------------------------------------------------------------|
B|----------------------------------------------------------------------|
G|--333333333333--------------------------------------------------------|
D|--333333333333--------------------------------------------------------|
A|--111111111111--------3-2-----3-2----5-3-2-----3-2-----3-2-----5-3----|
E|----------------3-2-3-----2-3------3-------2-3-----2-3------3---------|

e|----------------------------------------------------------------------|
B|----------------------------------------------------------------------|
G|--333333333333--------------------------------------------------------|
D|--333333333333--------------------------------------------------------|
A|--111111111111--------------------------------------------------------|
E|----------------3-----------------------------------------------------|

************************************

| /   slide up
| \   slide down
| h   hammer-on
| p   pull-off
| ~   vibrato
| +   harmonic
| x   Mute note
| b   Bend
| pb  Pre-bend
| br  Bend release
| pbr Pre-bend release
| brb Bend release bend

************************************
comments
We did not receive enough feedback on this tab! Please rate:
print report bad tab
1 2 3 4 5
I want to post or [tab]
guest
You may want to rate the tab now too:
select rating
Please do not post tabs as comments. Select "correction" instead!