Oops, an error
Loading. Please wait.

Testament To Youth In Verse Bass Tab

363 views 1 this week
no commentswrite comment
1 2 3 4 5
excellent!
x 1
add to favorites
launch autoscroll
font size
0
reset
guitar tuner
Tab Pro tools
  • play this tab
  • loop segment
  • change instrument
  • show fretboard
  • metronome
Autoscroll
slow
fast
+/-
esc
set tempo
stop
Difficulty
novice
-----------------------------------------------------------------------------
-------------Testament to Youth in Verse - The New Pornographers-------------
-----------------------------------------------------------------------------
Tabbed by: Mitch

Verse:

'Should you go looking'

G|------------------|
D|-------2--------2-|
A|------------------|
E|-0--0-----0--0----|

G|-----------------|
D|-------6-------6-|
A|-----------------|
E|-4--4----4--4----|

'Variations on the age old curse'

G|------------------|
D|-------4--------4-|
A|------------------|
E|-2--2-----2--2----|

'When you play like a fool and like a fool you get played with'

G|------------------------------|
D|------------------------------|
A|------------------------------|
E|-5-5--5-5-5-5-5-5-5-5-5-5-5---|

'Baby, think twice'

G|------------------|
D|-------2--------2-|
A|------------------|
E|-0--0-----0--0----|

G|-----------------|
D|-------6-------6-|
A|-----------------|
E|-4--4----4--4----|

'Maybe its not alright'

G|------------------|
D|-------4--------4-|
A|------------------|
E|-2--2-----2--2----|

'Maybe its not alriiiiiight'

G|------------------------------|
D|------------------------------|
A|------------------------------|
E|-5-5--5-5-5-5-5-5-5-5-5-5-5---|

G|------------------|
D|-------2--------2-|
A|------------------|
E|-0--0-----0--0----|

G|-----------------|
D|-------6-------6-|
A|-----------------|
E|-4--4----4--4----|

G|------------------|
D|-------4--------4-|
A|------------------|
E|-2--2-----2--2----|

G|------------------------------|
D|------------------------------|
A|------------------------------|
E|-5-5--5-5-5-5-5-5-5-5-5-5-5---|

Pre-Chorus:

'Finally a descent picture of the exodus'

G|------------------------------|
D|------------------------------|
A|------------------------------|
E|-5-5--5-5-5-5-5-5-5-5-5-5-5---|

Chorus:

'Well I don't know much'

G|---------------------|
D|---------------------|
A|---------------------|
E|-0--0-0-0--0---0-0---|

'Can't we learn to control ourselves'

G|-------------------------|
D|-------------------------|
A|--4--4--4-4-4-4-4-4------|
E|-------------------------|

'Keep our hands off each other'

G|---------------------------------------------------|
D|---------------------------------------------------|    x2
A|---------------------------------------------------|
E|-2--2-2-2-2-2-2-2-2-2-2s/4-4-4-4-4-4-4-4-4-4-4\s---|

Verse:

'So, should you go looking'

G|------------------|
D|-------2--------2-|
A|------------------|
E|-0--0-----0--0----|

G|-----------------|
D|-------6-------6-|
A|-----------------|
E|-4--4----4--4----|

'Variations on the age old curse'

G|------------------|
D|-------4--------4-|
A|------------------|
E|-2--2-----2--2----|

'When you play like a fool and like a fool you get played with'

G|------------------------------|
D|------------------------------|
A|------------------------------|
E|-5-5--5-5-5-5-5-5-5-5-5-5-5---|

'Baby, think twice'

G|------------------|
D|-------2--------2-|
A|------------------|
E|-0--0-----0--0----|

G|-----------------|
D|-------6-------6-|
A|-----------------|
E|-4--4----4--4----|

'Maybe its not alright'

G|------------------|
D|-------4--------4-|
A|------------------|
E|-2--2-----2--2----|

'Maybe its not all'

G|------------------------------|
D|------------------------------|
A|------------------------------|
E|-5-5--5-5-5-5-5-5-5-5-5-5-5---|

Outro:

'Oh my sweet witness'

G|-----------|
D|-----------|
A|-2~--------|
E|-----------|

'Can't you hear the voices'

G|-----------|
D|-----------|
A|-----------|
E|--2~-------|

'They're telling the children'

G|-----------|
D|-----------|
A|-4~--------|
E|-----------|

'To rock for their choice, oh'

G|-----------|
D|-----------|
A|-----------|
E|-4~--------|

G|--------------------|
D|--------------------|
A|--------------------|
E|-5--5-5-5-5-5-5-5~--|

'The bells ring no no....'

G|-----------|
D|-----------|
A|-----------|
E|-0~--------|

'no no no no'

G|-----------|
D|-----------|
A|-----------|
E|---5~------|

'The bells ring no no....'

G|-----------|
D|-----------|
A|-----------|
E|-0~--------|

'no no no no'

G|-----------|
D|-----------|
A|-----------|
E|---5~------|

'The bells ring no no....'

G|-----------|
D|-----------|
A|-----------|
E|-0~--------|

'no no no no'

G|-----------|
D|-----------|
A|-----------|
E|---5~------|

'The bells ring no no....'

G|-----------|
D|-----------|
A|-----------|
E|-0~--------|

'no no no no'

G|-----------|
D|-----------|
A|-----------|
E|---5~------|

'The bells ring no no....'

G|-----------|
D|-----------|
A|-----------|
E|-0~--------|

'no no no no'

G|-----------|
D|-----------|
A|-----------|
E|---5~------|

(JAM LIKE HELL NOW!!!)

(Improv rhythm)

'The bells ring no no....'

G|-----------|
D|-----------|
A|-----------|
E|-0~--------|

'no no no no'

G|-----------|
D|-----------|
A|-----------|
E|---5~------|

'The bells ring no no....'

G|-----------|
D|-----------|
A|-----------|
E|-0~--------|

'no no no no'

G|-----------|
D|-----------|
A|-----------|
E|---5~------|

'The bells ring no no....'

G|-----------|
D|-----------|
A|-----------|
E|-0~--------|

'no no no no'

G|-----------|
D|-----------|
A|-----------|
E|---5~------|

G|-----------|
D|-----------|
A|-----------|
E|-0~--------|

G|-----------|
D|-----------|
A|-----------|
E|---5~------|

G|-----------|
D|-----------|
A|-----------|
E|-0~--------|

|s/ Slide Up
|\s  Slide Down
|~ Vibrato (Sustain Note)
comments
We did not receive enough feedback on this tab! Please rate:
print report bad tab
1 2 3 4 5
I want to post or [tab]
guest
You may want to rate the tab now too:
select rating
Please do not post tabs as comments. Select "correction" instead!