Oops, an error
Loading. Please wait.

The Laws Have Changed Bass Tab

644 views 1 this week
no commentswrite comment
1 2 3 4 5
please rate
add to favorites
launch autoscroll
font size
0
reset
guitar tuner
Tab Pro tools
  • play this tab
  • loop segment
  • change instrument
  • show fretboard
  • metronome
×
Best way to learn
"The Laws Have Changed"
Autoscroll
slow
fast
+/-
esc
set tempo
stop
Contributor
0:01
G----------------------------------------------------------------|
D----------------------------------------------------------------|
A----------------------------------------------------00--00------|
E--00000000000000000000000000000000000000000000000024--20--20----|

G--------------------------------|
D--------------------------------|
A------------------00--0000------| x1
E--0000000000000024--20----------|

0:18
G--------------------------------------|
D--------------------------------------|
A--55555555555555557764--4-------------| x1
E----------------------77--55555454----|

0:25
G----------------------|
D----------------------|
A--2222222200000000----| x3
E----------------------|

0:35
G--------------|
D--------------|
A--22222222----| x1
E--------------|

0:37
G----------------------------------------------------------------|
D----------------------------------------------------------------|
A----------------------------------------------------00--00------|
E--00000000000000000000000000000000000000000000000024--20--20----|

G--------------------------------|
D--------------------------------|
A------------------00--0000------| x1
E--0000000000000024--20----------|

0:54
G--------------------------------------|
D--------------------------------------|
A--55555555555555557764--4-------------| x1
E----------------------77-755545454----|

1:01
G----------------------|
D----------------------|
A--2222222200000000----| x3
E----------------------|

1:11
G--------------|
D--------------|
A--22222222----| x1
E--------------|

1:12
G-----6-6-------------6-6--------------|
D----6---6-4--4-446--6---6-4--4-666----|
A--44-----4--------44-----4------------| x1
E--------------------------------------|

1:19
G------------2--222----|
D----2---2-------------|
A----------00-00-------| x2
E--00-000-0------------|

1:26
G-----6-6-------------6-6--------------|
D----6---6-4--4-466--6---6-4--4-444----|
A--44-----4--------44-----4------------| x1
E--------------------------------------|

1:33
G------------2--222----|
D----2---2-------------|
A----------00-00-------| x2
E--00-000-0------------|

1:40
G----------------------------------------------------------------|
D----------------------------------------------------------------|
A----------------------------------------------------00--00------|
E--00000000000000000000000000000000000000000000000024--20--20----|

G--------------------------------|
D--------------------------------|
A------------------00--0000------| x1
E--0000000000000024--20----------|

1:56
G--------------------------------------|
D--------------------------------------|
A--55555555555555557764--4-------------| x1
E----------------------77--55545454----|

2:04
G----------------------|
D----------------------|
A--2222222200000000----| x3
E----------------------|

2:13
G--------------------|
D--------------------|
A--222222------------| x1
E--------00000000----|

2:16
G------------------------|
D------------------------|
A----2222222200000000----| x1
E--45--------------------|

2:20
G----------------------|
D----------------------|
A--2222222200000000----| x3
E----------------------|

2:26
G--------------|
D--------------|
A--22222222----| x1
E--------------|

2:28
G-----6-6-------------6-6--------------|
D----6---6-4--4-446--6---6-4--4-446----|
A--44-----4--------44-----4------------| x1
E--------------------------------------|

2:36
G------------2--212----|
D----2---2-------------|
A----------00-00-------| x1
E--00-000-0------------|

2:39
G------------2--222----|
D----2---2-------------|
A----------00-00-------| x1
E--00-000-0------------|

2:42
G-----6-6-------------6-6--------------|
D----6---6-4--4-444--6---6-4--4-466----|
A--44-----4--------44-----4------------| x1
E--------------------------------------|

2:49
G------------2--212----|
D----2---2-------------|
A----------00-00-------| x1
E--00-000-0------------|

2:52
G------------2--222----|
D----2---2-------------|
A----------00-00-------| x1
E--00-000-0------------|

2:56
G----------------------|
D----------------------|
A----------------------| x3
E--0000000000000000----|
comments
We did not receive enough feedback on this tab! Please rate:
print report bad tab
1 2 3 4 5
I want to post or [tab]
guest
You may want to rate the tab now too:
select rating
Please do not post tabs as comments. Select "correction" instead!