Oops, an error
Loading. Please wait.

Twin Cinema Bass Tab

626 views 1 this week
no commentswrite comment
1 2 3 4 5
please rate
add to favorites
launch autoscroll
font size
0
reset
guitar tuner
Tab Pro tools
  • play this tab
  • loop segment
  • change instrument
  • show fretboard
  • metronome
×
Best way to learn
"Twin Cinema"
Autoscroll
slow
fast
+/-
esc
set tempo
stop
Contributor
Difficulty
intermediate
New Pornographers - Twin Cinema

email: genius.and.profanity@gmail.com

A totally fun song that's still fun to play without being too complicated.

Verse x 3:
G|--------------------------------------------------|
D|--------------------------------------------------|
A|-5-5--------5-5--------5-5-------3-3---3----------|
E|------3~-3~------3~-3~-----3~-3~-----5---5~-5-3---|

1st Chorus:
G|-----------------------------------------------------------------|
D|-5-5-5-5-7-7-7-7-----------------5-5-5-5-7-7-7-7-----------------|
A|-----------------5-5-5-5-5-5-5-5-----------------5-5-5-5-5-5-5-5-|
E|-----------------------------------------------------------------|

G|-----------------------------------------------------------------|
D|-----------------------------------------------------------------|
A|-----------------5-5-5-5-5-5-5-5-----------------5-5-5-5-5-5-5-5-|
E|-3-3-3-3-5-5-5-5-----------------3-3-3-3-5-5-5-5-----------------|

Verse x3

2nd Chorus x2:
G|-----------------------------------------------------------------|
D|-----------------------------------------------------------------|
A|-----------------5-5-5-5-5-5-5-5-----------------5-5-5-5-5-5-5-5-|
E|-3-3-3-3-5-5-5-5-----------------3-3-3-3-5-5-5-5-----------------|

Bridge 1 x2:
G|-----------------------------------------------------------------|
D|-----------------------------------------------------------------|
A|-2-2-2-2-----------------5-5-5-5-2-2-2-2-----------------5-5-5-5-|
E|---------0-0-0-0-3-3-3-3-----------------0-0-0-0-3-3-3-3---------|

1:30 Bridge 2 (listen for how long to hold each): 
G|----------------------------7~~-----7~-7--7--7------9~~-9-7------|
D|--7~~~-9~~-5~~-7~~~-9~~-5~~-----5~~------------7~~~---------9-5~-|
A|-----------------------------------------------------------------|
E|-----------------------------------------------------------------|

Verse x3

2nd Chorus x3

Ending:
G|----------------------------------------------------|
D|----------------------------------------------------|
A|-5-5--------5-5--------5-5-------3-3---3--------5-5-|
E|------3~-3~------3~-3~-----3~-3~-----5---5~-5-3-----|

There you have it. Pretty sound, I think. Play on!
comments
We did not receive enough feedback on this tab! Please rate:
print report bad tab
1 2 3 4 5
I want to post or [tab]
guest
You may want to rate the tab now too:
select rating
Please do not post tabs as comments. Select "correction" instead!