Oops, an error
Loading. Please wait.

Use It Bass Tab

518 views 1 this week
no commentswrite comment
1 2 3 4 5
please rate
add to favorites
launch autoscroll
font size
0
reset
guitar tuner
Tab Pro tools
  • play this tab
  • loop segment
  • change instrument
  • show fretboard
  • metronome
Autoscroll
slow
fast
+/-
esc
set tempo
stop
Contributor
Difficulty
advanced
-------------------------------------------------------------------------------
			     USE IT - The New Pornographers
-------------------------------------------------------------------------------

Tabbed By : SaintChris
e-mail: genius.and.profanity@gmail.com

Tuning: Standard

Rest 1 measure

G|--------------|--------------|--------------|--------------|
D|-777777777777-|-777777777777-|-777777777777-|-777777777777-|
A|--------------|--------------|--------------|--------------|
E|--------------|--------------|--------------|--------------|

G|--------------|--------------|--------------|--------------|
D|-777777777777-|-777777777777-|-777777777777-|-777777777777-|
A|--------------|--------------|--------------|--------------|
E|--------------|--------------|--------------|--------------|

G|--------------|--------------|--------------|--------------|
D|-777777777777-|-777777777777-|-777777777777-|-777777777777-|
A|--------------|--------------|--------------|--------------|
E|--------------|--------------|--------------|--------------|

 "The cat calls"
G|--------------|--------------|--------------|--------------|
D|-777777777777-|--------------|--------------|-999999999999-|
A|--------------|-777777777777-|-777777777777-|--------------|
E|--------------|--------------|--------------|--------------|

G|--------------|--------------|--------------|--------------|
D|-999999999999-|--------------|-777777777777-|-999999999999-|
A|--------------|-999999999999-|--------------|--------------|
E|--------------|--------------|--------------|--------------|

                "The phone book's"
G|--------------|--------------|--------------|--------------|
D|-999999999999-|--------------|-777777777777-|--------------|
A|--------------|-999999999999-|--------------|-777777777777-|
E|--------------|--------------|--------------|--------------|

G|--------------|--------------|--------------|--------------|
D|-999999999999-|-999999999999-|--------------|-777777777777-|
A|--------------|--------------|-999999999999-|--------------|
E|--------------|--------------|--------------|--------------|

                                                      "Use it
G|--------------|--------------|--------------|--------------|
D|-999999999999-|-999999999999-|--------------|-777777777777-|
A|--------------|--------------|-999999999999-|--------------|
E|--------------|--------------|--------------|--------------|

  Tonight" (Chorus)
G|--------------|--------------|--------------|--------------|
D|--------------|--------------|--------------|--------------|
A|--------------|-7~--7~--7~--7|--------------|-7~--7~--7~--7|
E|-7~--7~--7~--7|--------------|-7~--7~--7~--7|--------------|



G|-999999999999-|-999999999999-|-999999999999-|-999999999999-|
D|--------------|--------------|--------------|--------------|
A|--------------|--------------|--------------|--------------|
E|--------------|--------------|--------------|--------------|

 "Heads down,"
G|--------------|--------------|--------------|--------------|
D|--------------|--------------|--------------|--------------|
A|--------------|-7777-77777-7-|-7777-77777-7-|--------------|
E|-5555-5555555-|--------------|--------------|-7-77777-7777-|

G|--------------|--------------|--------------|--------------|
D|--------------|--------------|--------------|--------------|
A|--------------|-9999-9999997-|--------------|--------------|
E|-7777777777-7-|--------------|-5555-5555555-|-77-7-7777777-|

G|--------------|--------------|--------------|--------------|
D|--------------|--------------|--------------|--------------|
A|--------------|-9999-9999997-|--------------|-777777777777-|
E|-7777777777-7-|--------------|-5555-5555555-|--------------|

G|--------------|--------------|--------------|--------------|
D|--------------|--------------|--------------|--------------|
A|--------------|--------------|-9999-9999997-|--------------|
E|-7777777777-7-|-777777777777-|--------------|-555555555555-|

                                                      "Use it
G|--------------|--------------|--------------|--------------|
D|--------------|--------------|--------------|--------------|
A|--------------|--------------|-999999-99999-|--------------|
E|-7777-77777-7-|-7777-77777-7-|--------------|-55555-5555-7-|

  Tonight"
G|--------------|--------------|--------------|--------------|
D|--------------|--------------|--------------|--------------|
A|--------------|-7-7-777-7-77-|--------------|-7-7-777-7-77-|
E|-7-7-777-7-77-|--------------|-7-7-777-7-77-|--------------|

 "You had to send the wrecking crew"
G|--------------|--------------|--------------|--------------|
D|--------------|--------------|--------------|--------------|
A|--------------|--------------|--------------|--------------|
E|-0~--0~--0~-0-|-2/7~-7~-7~-7-|-0h2~--2~--2~-|-5-5~-55-7-7-2|

G|--------------|--------------|--------------|--------------|
D|--------------|--------------|--------------|--------------|
A|--------------|--------------|--------------|--------------|
E|-0~--0~--0~-0-|-2/7~-7~-7~-7-|-0h2~--2~--2~-|-5~-5~-5/7-7/2|

G|--------------|--------------|--------------|-999999999999-|
D|--------------|--------------|--------------|--------------|
A|--------------|--------------|--------------|--------------|
E|-0~-----------|(0~)----------|(0~)----------|--------------|

 "Phantom of the heart"
G|--------------|--------------|--------------|--------------|
D|--------------|--------------|--------------|--------------|
A|--------------|-7~-7~-7~-7~-7|-7~-7~-7~-7~-7|--------------|
E|-5~-5~-5~-5-57|--------------|--------------|-7~-7~-7~-7~-7|

G|--------------|--------------|--------------|--------------|
D|--------------|--------------|--------------|--------------|
A|--------------|-9~-9~-9~9p7/4|--------------|--------------|
E|-7~-7~-7~-7~-7|--------------|-5~-5~-5~-5-5-|-7~-7~-7~-7~-7|

G|--------------|--------------|--------------|--------------|
D|--------------|--------------|--------------|--------------|
A|--------------|-9~-9~-9~-9~--|--------------|--------------|
E|-7~-7~-7~-7~-7|--------------|-5~-5~-5~-5~--|-0------------|

G|--------------|--------------|--------------|--------------|
D|--------------|--------------|--------------|--------------|
A|--------------|--------------|-9~-9~-9~-9-7-|--------------|
E|-7~-7~-7~-7~-7|-77--77-77-77-|--------------|-5~-5~-5~-5~--|

                                                      "Use it
G|--------------|--------------|--------------|--------------|
D|--------------|--------------|--------------|--------------|
A|--------------|--------------|-9~-9~-9~-9-7-|--------------|
E|-7~-7~-7~-7~-7|-7~-7~-7~-7~-7|--------------|-5~-5~-5~-5~--|

  Tonight"
G|--------------|--------------|--------------|--------------|
D|--------------|--------------|--------------|--------------|
A|--------------|-7~-7~-7~-7~-7|--------------|7~-7~-77------|
E|-7~-7~-7~-7~-7|--------------|-7~-7~-77-77-7|--------77/2p0|

 "You had to send the wrecking crew"
G|--------------|--------------|--------------|--------------|
D|--------------|--------------|--------------|--------------|
A|--------------|--------------|--------------|--------------|
E|-0~--0~--0~-0-|-2/7~-7~-7~-7-|-0h2~--2~--2~-|-5-5555777777-|

G|--------------|--------------|--------------|--------------|
D|--------------|--------------|--------------|--------------|
A|--------------|--------------|--------------|--------------|
E|-0~--0~--0~-0-|-2/7~-7~-7~-7-|-0h2~--2~--2~-|-5~-----------|

                                      "Use it Tonight"
G|--------------|--------------|--------------|--------------|
D|-7~-----------|-7~-----7~----|-7~--7~--7~--7|--------------|
A|--------------|--------------|--------------|--------------|
E|-5~-----------|-5~-----5~----|-5~--5~--5~--5|-7~--7~--7~--7|

G|--------------|--------------|--------------|--------------|
D|--------------|--------------|--------------|--------------|
A|--------------|--------------|--------------|--------------|
E|-0~--0~--0~-0-|-7~-7~-7~-777-|-0~--0~--0~-0-|-7~-7~-7~-777-|

G|--------------|--------------|--------------|--------------|
D|--------------|--------------|--------------|--------------|
A|--------------|--------------|--------------|--------------|
E|-0~--0~--0~-0-|-7~-7~-7~-777-|-0~--0~--0~-0-|-0~--0~--0~-0-|

G|--------------|-9------------|
D|--------------|--------------|
A|--------------|--------------|
E|-0~--0~--0~-0-|-0------------|
comments
We did not receive enough feedback on this tab! Please rate:
print report bad tab
1 2 3 4 5
I want to post or [tab]
guest
You may want to rate the tab now too:
select rating
Please do not post tabs as comments. Select "correction" instead!