Oops, an error
Loading. Please wait.

Silencio Bass Tab

93 views 3 this week
no commentswrite comment
1 2 3 4 5
3 more votes to show rating
add to favorites
launch autoscroll
font size
0
reset
guitar tuner
Autoscroll
slow
fast
+/-
esc
set tempo
stop
Help us to improve Ultimate-Guitar.com Take our survey!
×
Estrofa
G|----------------------------|
D|----------------------------|
A|---4-4----4-4---------------|
E|-----------------6-6----4-4-|

Estribillo
G|----------------------------------|
D|----------------------------------|
A|---9-9----9/11-11-----------------|
E|---------------------11-11----9-9-|

G|--------------------------------------|
D|--------------------------------------|
A|---9-9----9/11-11---------------------|
E|---------------------9-9----9-9-9-8-7-|

G|----------------------------------|
D|----------------------------------|
A|---9-9----9/11-11-----------------|
E|---------------------11-11----9-9-|

G|--------------------------|
D|--------------------------|
A|---9-9----9/11-11---13-13-|
E|--------------------------|
Suggest correction
Give kudos to tab author, rate the tab!
1 2 3 4 5
comments
print report bad tab
guest
You may want to rate the tab now too:
select rating
Wanna post a correction for this tab? Suggest correction