Oops, an error
Loading. Please wait.

This War Time intro tab

304 views 1 this week
no commentswrite comment
1 2 3 4 5
2 more votes to show rating
add to favorites
×
Save as Personal and add changes to this tab that will be seen only by you. Learn more ›
×
You can save this tab as Personal to edit and correct it or add notes. All changes will be seen only by you. Learn more »
launch autoscroll
font size
0
reset
how to read this tab
guitar tuner
edit
Autoscroll
slow
fast
+/-
esc
set tempo
stop
-----------------------------------------------------------------------------
This War Time - The New Regime
-----------------------------------------------------------------------------

tabbed by: RunawayBoy

email: pie-man101@hotmail.co.uk


Not a difficult song to work out. This tab is still incomplete.
This is only for the main guitar. There are two guitar parts.
I'll do my best to work it all out.

Intro:
E|-------------------------------------------|
B|--2-2-2-1----2-2-2-1---4-4-4---------------|
G|--3-3-3-3----3-3-3-3---1-1-1---------------|
D|--3-3-3-3----3-3-3-3---3-3-3---4--4--1-----|
A|--1-1-1-1----1-1-1-1---1-1-1---4--4--1-----|
D|-------------------------------4--4--1-----| x2


Verse 01:
E|--------------------------------1-2-------1-------1-------|
B|------2---------2---2---2-------------4-------4-------4---|
G|------3---------3---3---3-----3---------------------------|
D|----3---------3-------------4-----------------------------|
A|--1---------1---------------------------------------------|
D|----------------------------------------------------------| x4


Chorus:
E|------------------------------------------------------------------|
B|------------------------------------------------------------------|
G|------------------------------------------------------------------|
D|--3-3-3-3-3-3-3-3-3-3-3-3-3-3-3-3-8-8-8-8-8-8-8-8-8-8-8-8-8-8-8-8-|
A|--3-3-3-3-3-3-3-3-3-3-3-3-3-3-3-3-8-8-8-8-8-8-8-8-8-8-8-8-8-8-8-8-|
D|--3-3-3-3-3-3-3-3-3-3-3-3-3-3-3-3-8-8-8-8-8-8-8-8-8-8-8-8-8-8-8-8-|

E|------------------------------------------------------------------|
B|------------------------------------------------------------------|
G|------------------------------------------------------------------|
D|-6-6-6-6-6-6-6-6-6-6-6-6-6-6-6-6-1-1-1-1-1-1-1-1-1-1-1-1-1-1-1-1--|
A|-6-6-6-6-6-6-6-6-6-6-6-6-6-6-6-6-1-1-1-1-1-1-1-1-1-1-1-1-1-1-1-1--|
D|-6-6-6-6-6-6-6-6-6-6-6-6-6-6-6-6-1-1-1-1-1-1-1-1-1-1-1-1-1-1-1-1--| x2

E|-------------------------------------------|
B|--2-2-2-1----2-2-2-1---4-4-4---------------|
G|--3-3-3-3----3-3-3-3---1-1-1---------------|
D|--3-3-3-3----3-3-3-3---3-3-3---4--4--1-----|
A|--1-1-1-1----1-1-1-1---1-1-1---4--4--1-----|
D|-------------------------------4--4--1-----| x2


Verse 02: Still figuring it out.


Chorus:
E|------------------------------------------------------------------|
B|------------------------------------------------------------------|
G|------------------------------------------------------------------|
D|--3-3-3-3-3-3-3-3-3-3-3-3-3-3-3-3-8-8-8-8-8-8-8-8-8-8-8-8-8-8-8-8-|
A|--3-3-3-3-3-3-3-3-3-3-3-3-3-3-3-3-8-8-8-8-8-8-8-8-8-8-8-8-8-8-8-8-|
D|--3-3-3-3-3-3-3-3-3-3-3-3-3-3-3-3-8-8-8-8-8-8-8-8-8-8-8-8-8-8-8-8-|

E|------------------------------------------------------------------|
B|------------------------------------------------------------------|
G|------------------------------------------------------------------|
D|-6-6-6-6-6-6-6-6-6-6-6-6-6-6-6-6-1-1-1-1-1-1-1-1-1-1-1-1-1-1-1-1--|
A|-6-6-6-6-6-6-6-6-6-6-6-6-6-6-6-6-1-1-1-1-1-1-1-1-1-1-1-1-1-1-1-1--|
D|-6-6-6-6-6-6-6-6-6-6-6-6-6-6-6-6-1-1-1-1-1-1-1-1-1-1-1-1-1-1-1-1--| x2


Verse 03:
E|------------------------------------------------------------------|
B|------------------------------------------------------------------|
G|--------8-8---------8-8---8/1010-----------8-8---------8-8---8----|
D|--3-3---8-8---3-3---8-8---8/1010-----3-3---8-8---3-3---8-8---8-7--|
A|--3-3---6-6---3-3---6-6---6/8-8------3-3---6-6---3-3---6-6---6-7--|
D|--3-3---------3-3--------------------3-3---------3-3-----------7--| x2

            
            
Suggest correction
Creating personal tab
Creating personal tab
You can edit any tab online and save it as your Personal.

You can edit, replace or remove any tab part or add personal notes – all changes will be seen only by you.

Personal tabs can be accessed anytime from any device, even offline.
Learn more »
Give kudos to tab author, rate the tab!
1 2 3 4 5
comments
print report bad tab
guest
You may want to rate the tab now too:
select rating
Wanna post a correction for this tab? Suggest correction