Oops, an error
Loading. Please wait.

Mr Kirby Bass Tab

7 views 1 this week
no commentswrite comment
1 2 3 4 5
3 more votes to show rating
add to favorites
launch autoscroll
font size
0
reset
guitar tuner
Autoscroll
slow
fast
+/-
esc
set tempo
stop
Help us to improve Ultimate-Guitar.com Take our survey!
×
Author
Difficulty
novice
Tabbed by: 6METAL6BASSIST6
E-mail: petergriffinav@gmail.com

Tuning: EADG

G|19------19------19------19------19------19------19------19------|
D|----------------------------------------------------------------| x4
A|----------------------------------------------------------------|
E|----------------------------------------------------------------|

G|19------19--------------------------------------------------------------|
D|------------------------------------------------------------------------|
A|------------------------------------------------------------------------|
E|------------------------------------------------------------------------|

G|----------------------------------------------------------------|
D|----------------------------------------------------------------|
A|5-------3-----------------------------------------------3-------|
E|----------------5-------3-------1-------3-------5---------------|

0:20

G|----------------------------------------------------------------|
D|----------------------------------------------------------------| x2
A|5-------3-----------------------------------------------3-------|
E|----------------5-------3-------1-------3-------5---------------|

G|----------------------------------------------------------------|
D|----------------------------------------------------------------|
A|--------2-------3-------4-------5-------3-----------------------|
E|3-----------------------------------------------5-------3-------|

G|--------------------------------|
D|--------------------------------|
A|------------------------3-------|
E|1-------3-------5---------------|

0:32

G|----------------------------------------------------------------|
D|----------------------------------------------------------------| x2
A|5-------3-----------------------------------------------3-------|
E|----------------5-------3-------1-------3-------5---------------|

G|----------------------------------------------------------------|
D|----------------------------------------------------------------|
A|--------2-------3-------4-------5-------3-----------------------|
E|3-----------------------------------------------5-------3-------|

G|----------------------------------------------------------------|
D|----------------------------------------------------------------|
A|------------------------3-------5-------3-------3---------------|
E|1-------3-------5---------------------------------------5-------|

G|--------------------------------|
D|--------------------------------|
A|5---5---5---5---5---5---5---5---|
E|--------------------------------|

0:48

G|----------------------------------------------------------------|
D|----------------------------------------------------------------|
A|5---5---5---5---5---5---5---5---5---5---5---5---5---5---5---5---|
E|----------------------------------------------------------------|

G|----------------------------------------------------------------|
D|5---5---5---5---5---5---5---5---7---7---7---7---7---7---7-------|
A|----------------------------------------------------------------|
E|----------------------------------------------------------------|

G|----------------------------------------------------------------|
D|----------------------------------------------------------------|
A|5-------------------------------5-------------------------------|
E|----------------------------------------------------------------|

0:57

G|----------------------------------------------------------------|
D|----------------------------------------------------------------| x3
A|5---5---5---5---5---5---5---5---5---5---5---5---5---5---5---5---|
E|----------------------------------------------------------------|

G|----------------------------------------------------------------|
D|----------------------------------------------------------------|
A|5---5---5---5---5---5---5---5---5---5---5---5---5---5---5-------|
E|----------------------------------------------------------------|

G|----------------------------------------------------------------|
D|----------------------------------------------------------------|
A|5---------------------------------------------------------------|
E|----------------------------------------------------------------|

G|----------------------------------------------------------------|
D|----------------------------------------------------------------|
A|5-------3-----------------------------------------------3-------|
E|----------------5-------3-------1-------3-------5---------------|

1:18

G|----------------------------------------------------------------|
D|----------------------------------------------------------------| x2
A|5-------3-----------------------------------------------3-------|
E|----------------5-------3-------1-------3-------5---------------|

G|----------------------------------------------------------------|
D|----------------------------------------------------------------|
A|--------2-------3-------4-------5-------3-----------------------|
E|3-----------------------------------------------5-------3-------|

G|--------------------------------|
D|--------------------------------|
A|------------------------3-------|
E|1-------3-------5---------------|

1:29

G|----------------------------------------------------------------|
D|----------------------------------------------------------------| x2
A|5-------3-----------------------------------------------3-------|
E|----------------5-------3-------1-------3-------5---------------|

G|----------------------------------------------------------------|
D|----------------------------------------------------------------|
A|--------2-------3-------4-------5-------3-----------------------|
E|3-----------------------------------------------5-------3-------|

G|----------------------------------------------------------------|
D|----------------------------------------------------------------|
A|------------------------3-------5-------3-------3---------------|
E|1-------3-------5---------------------------------------5-------|

G|--------------------------------|
D|--------------------------------|
A|5-------------------------------|
E|--------------------------------|

1:45

G|----------------------------------------------------------------|
D|----------------------------------------------------------------|
A|5-------------------------------5-------------------------------|
E|----------------------------------------------------------------|

G|----------------------------------------------------------------|
D|5-----------------------6-------7-------------------------------|
A|----------------------------------------------------------------|
E|----------------------------------------------------------------|

G|------------------------|
D|------------------------|
A|------------------------|
E|------------------------|

G|----------------------------------------------------------------|
D|----------------------------------------------------------------|
A|5-------------------------------5-------------------------------|
E|----------------------------------------------------------------|

1:57

G|----------------------------------------------------------------|
D|----------------------------------------------------------------|
A|5---5---5---5---5---5---5---5---5---5---5---5---5---5---5---5---|
E|----------------------------------------------------------------|

G|----------------------------------------------------------------|
D|----------------------------------------------------------------|
A|5-------5---5---5---5---5---5---5---5---5---5---5---5---5---5---|
E|----------------------------------------------------------------|

G|----------------------------------------------------------------|
D|----------------------------------------------------------------| x2
A|5---5---5---5---5---5---5---5---5---5---5---5---5---5---5---5---|
E|----------------------------------------------------------------|

G|----------------------------------------------------------------|
D|----------------------------------------------------------------|
A|5-------5---5---5---5---5---5---5---5---5---5---5---5---5---5---|
E|----------------------------------------------------------------|

G|----------------------------------------------------------------|
D|----------------------------------------------------------------|
A|5---5---5---5---5---5-------5---5---5---5---5---5---5---5---5---|
E|----------------------------------------------------------------|

G|----------------------------|
D|----------------------------| fades out here.
A|5---5---5---5---5---5---5---|
E|----------------------------|
Suggest correction
Give kudos to tab author, rate the tab!
1 2 3 4 5
comments
print report bad tab
guest
You may want to rate the tab now too:
select rating
Wanna post a correction for this tab? Suggest correction