Oops, an error
Loading. Please wait.

It Begins Tonight Tab

1,510 views 3 this week
2 commentsread comments
1 2 3 4 5
excellent!
x 3
add to favorites
launch autoscroll
font size
0
reset
how to read this tab
guitar tuner
Autoscroll
slow
fast
+/-
esc
set tempo
stop
Help us to improve Ultimate-Guitar.com Take our survey!
×
Author
Artist: The Nightwatchman
Song: It begins tonight
Album: World Wide Rebel Songs
Tabbed by: SpitfireUA


e|----------------------------------------------------------------------------|
B|----------------------------------------------------------------------------|
G|----------------------------------------------------------------------------|
D|----------2p0------2p0---------2-x-2-x-2-x-x---2-x-x---2p0------2p0---------|
A|-------------2p0------2p0------2-x-2-x-2-x-x---2-x-x------2p0------2p0------|
E|-----12s0-------3p0------3p0-3-0-x-0-x-0-x-x-3-0-x-x-0-------3p0------3p0-3-|

                    I am red I am black I am city born
e|----------------------------------------------------------------------------|
B|----------------------------------------------------------------------------|
G|----------------------------------------------------------------------------|
D|2-x-2-x-2-x-x---2-x-x-2-----------------------------2-x-2-x-2-x-x---2-x-x-2-|
A|2-x-2-x-2-x-x---2-x-x-2-----------------------------2-x-2-x-2-x-x---2-x-x-2-|
E|0-x-0-x-0-x-x-3-0-x-x-0-----------------------------0-x-0-x-0-x-x-3-0-x-x-0-|

Mama got scared crawled far from home                I'm faceless nameless
e|----------------------------------------------------------------------------|
B|----------------------------------------------------------------------------|
G|-------------------------------------------------------2--------------------|
D|---------------------------------2-x-2-x-2-x-x---2-x-x-2--------------------|
A|---------------------------------2-x-2-x-2-x-x---2-x-x-0--------------------|
E|---------------------------------0-x-0-x-0-x-x-3-0-x-x----------------------|

  right or wrong                    I'm fearless, hopeless sing my song
e|----------------------------------------------------------------------------|
B|----------------------------------------------------------------------------|
G|---------------2-x-2-x-2-x-x---2--------------------------------------------|
D|---------------2-x-2-x-2-x-x---2-x-x-2------------------------------2-x-2-x-|
A|---------------0-x-0-x-0-x-x-3-0-x-x-2------------------------------2-x-2-x-|
E|---------------------------------x-x-0------------------------------0-x-0-x-|

         I call the lights                         It begins tonight
e|----------------------------------------------------------------------------|
B|----------------------------------------------------------------------------|
G|---------------4-4-4-4-4-4-4-4-4-4-4-4-4-4-4-4-2----------------------------|
D|-2-x-x---2-x-x-4-4-4-4-4-4-4-4-4-4-4-4-4-4-4-4-2---------------2p0------2p0-|
A|-2-x-x---2-x-x-2-2-2-2-2-2-2-2-2-2-2-2-2-2-2-2-0------------------2p0-------|
E|-0-x-x-3-0-x-x-----------------------------------------------0-------3p0----|

                             On stage with borrowed angel sword
e|-----------------------------------------------------------------------------|
B|-----------------------------------------------------------------------------|
G|-----------------------------------------------------------------------------|
D|---------2-x-2-x-2-x-x---2-x-x-2-----------------------------2-x-2-x-2-x-x---|
A|2p0------2-x-2-x-2-x-x---2-x-x-2-----------------------------2-x-2-x-2-x-x---|
E|---3p0-3-0-x-0-x-0-x-x-3-0-x-x-0-----------------------------0-x-0-x-0-x-x-3-|

     And a crossword puzzle of stolen chords              I am alive but those
e|----------------------------------------------------------------------------|
B|----------------------------------------------------------------------------|
G|---------------------------------------------------------------2------------|
D|-2-x-x-2---------------------------------2-x-2-x-2-x-x---2-x-x-2------------|
A|-2-x-x-2---------------------------------2-x-2-x-2-x-x---2-x-x-0------------|
E|-0-x-x-0---------------------------------0-x-0-x-0-x-x-3-0-x-x--------------|

   I've loved are gone                  Let's move tonight and take the throne
e|----------------------------------------------------------------------------|
B|----------------------------------------------------------------------------|
G|---------------------2-x-2-x-2-x-x---2--------------------------------------|
D|---------------------2-x-2-x-2-x-x---2-x-x-2--------------------------------|
A|---------------------0-x-0-x-0-x-x-3-0-x-x-2--------------------------------|
E|---------------------------------------x-x-0--------------------------------|

                I call the lights                       It begins tonight Oh
e|------------------------------------------------------------------------0---|
B|------------------------------------------------------------------------0---|
G|----------------------4-4-4-4-4-4-4-4-4-4-4-4-4-4-4-4-2-----------------0---|
D|2-x-2-x-2-x-x---2-x-x-4-4-4-4-4-4-4-4-4-4-4-4-4-4-4-4-2-------------2---2---|
A|2-x-2-x-2-x-x---2-x-x-2-2-2-2-2-2-2-2-2-2-2-2-2-2-2-2-0-------------2---2---|
E|0-x-0-x-0-x-x-3-0-x-x-----------------------------------------------0---0---|

 lord it begins tonight Oh lord oh lord it begins tonight  Oh  lord oh lord it
e|0---0--0--3---3---3---3---0---0---0---0--0--2---2---2---2--2--0---0---0---0-|
B|0---0--0--0---0---0---0---1---1---1---1--1--0---0---0---0--0--0---0---0---0-|
G|0---0--0--0---0---0---0---0---0---0---0--0--2---2---2---2--2--0---0---0---0-|
D|2---2--2--0---0---0---0---2---2---2---2--2--1---1---1---1--1--2---2---2---2-|
A|2---2--2--2---2---2---2---3---3---3---3--3--2---2---2---2--2--2---2---2---2-|
E|0---0--0--3---3---3---3---------------------------------------0---0---0---0-|

begins tonight Cell door clicks open eye come alive  Oh lord it begins tonight
e|0--3---3---3---3---0---0---0---0--0--0---0--0---0--0--0--2---2---2---2--2----|
B|0--0---0---0---0---1---1---1---1--1--1---1--1---1--1--1--0---0---0---0--0----|
G|0--0---0---0---0---0---0---0---0--0--2---2--2---2--2--2--2---2---2---2--2----|
D|2--0---0---0---0---2---2---2---2--2--2---2--2---2--2--2--1---1---1---1--1----|
A|2--2---2---2---2---3---3---3---3--3--0---0--0---0--0--0--2---2---2---2--2----|
E|0--3---3---3---3-----------------------------------------------------------0-|

e|----------------------------------------------------------------------------|
B|----------------------------------------------------------------------------|
G|----------------------------------------------------------------------------|
D|2p0------2p0---------2-x-2-x-2-x-x---2-x-x---2p0------2p0---------2-x-2-x-2-|
A|---2p0------2p0------2-x-2-x-2-x-x---2-x-x------2p0------2p0------2-x-2-x-2-|
E|------3p0------3p0-3-0-x-0-x-0-x-x-3-0-x-x-0-------3p0------3p0-3-0-x-0-x-0-|

          Follow the rules        What that bring  Look just where you told me
e|-----------------------------------------------------------------------------|
B|-----------------------------------------------------------------------------|
G|-----------------------------------------------------------------------------|
D|x-x---2--------------------------------------------------2--2--2--2--2--2--2-|
A|x-x---2--2--2--2--2--2--2--2--2--------------------------0--0--0--0--0--0--0-|
E|x-x-3-0--0--0--0--0--0--0--0--0--3--3--3--3--3--3--3--3----------------------|
      P.M.<--------------------------------------------------------------------|

I'm never find a thing Yeah I see all the jewels golden dime that glisten I see
e|-----------------------------------------------------------------------------|
B|-----------------------------------------------------------------------------|
G|------------2--2--2--2-------------------------------------------------------|
D|------------0--0--0--0--------------------------------------------------2--2-|
A|3--3--3--3--------------2--2--2--2--2--2--2--2--------------------------0--0-|
E|------------------------0--0--0--0--0--0--0--0--3--3--3--3--3--3--3--3-------|
P.M.---------------------------------------------------------------------------|
a mouth movin But man I ain't listen         Em                      G
e|-------------------------------------2--2--------------------------------12--|
B|----------------------------------3--3--3--12----12----12----12----12-15-----|
G|-------------------------0--0--2--2--2--2--14b16-14b16-14b16-14b16-----------|
D|-2--2--2--2--2--2--2--2--2--2--0--0--0--0------------------------------------|
A|-0--0--0--0--0--0--3--3--3--3------------------------------------------------|
E|-----------------------------------------------------------------------------|
P.M.---------------------------------------------------------------------------|
                                   A                                   C
e|---------------------------------------------12-----12-----12-----12-----12-|
B|-15-12----12---------------------15b17--15b17--15b17--15b17--15b17--15b17---|
G|-------14----14-14b15b16b14-12----------------------------------------------|
D|------------------------------14v-------------------------------------------|
A|----------------------------------------------------------------------------|
E|----------------------------------------------------------------------------|
          D             Em                                    G
e|-----12-----12-----12--------------------14-15-15-14--15-14-----------------|
B|15b17--15b17--15b17---12-13-13-12--13-12--------------------12-13-13-12--13-|
G|----------------------------------------------------------------------------|
D|----------------------------------------------------------------------------|
A|----------------------------------------------------------------------------|
E|----------------------------------------------------------------------------|
                              A                               C
e|----14-15-15-14--15-14--15--17b19b17-15-14------------------19p17p15---------|
B|-12---------------------------------------17-15-13------------------19p17p15-|
G|---------------------------------------------------16-17-17v-----------------|
D|-----------------------------------------------------------------------------|
A|-----------------------------------------------------------------------------|
E|-----------------------------------------------------------------------------|
                   D
e|-19p17p15--------19p17p15--------19p17p15--------19p17p15--------19p17p15----|
B|---------19p17p15--------19p17p15--------19p17p15--------19p17p15--------19--|p
G|-----------------------------------------------------------------------------|
D|-----------------------------------------------------------------------------|
A|-----------------------------------------------------------------------------|
E|-----------------------------------------------------------------------------|

                                                      Em Sun and moon and stone
e|-----19p17p15--------19p17p15--------19b21-19-17-15-------------------------|
B|17p15--------19p17p15--------19p17p15---------------19v\--------------------|
G|----------------------------------------------------------------------------|
D|----------------------------------------------------------------------------|
A|----------------------------------------------------------------------------|
E|----------------------------------------------------------------------------|

and mud                      A bottle of whisky and pile of blood
e|----------------------------------------------------------------------------|
B|----------------------------------------------------------------------------|
G|----------------------------------------------------------------------------|
D|----2-x-2-x-2-x-x---2-x-x-2-------------------------------------2-x-2-x-2-x-|
A|----2-x-2-x-2-x-x---2-x-x-2-------------------------------------2-x-2-x-2-x-|
E|----0-x-0-x-0-x-x-3-0-x-x-0-------------------------------------0-x-0-x-0-x-|

             I'll burn my way to the sea                     Till or I'm dead
e|----------------------------------------------------------------------------|
B|----------------------------------------------------------------------------|
G|----------2----------------------------2-x-2-x-2-x-x---2--------------------|
D|x---2-x-x-2----------------------------2-x-2-x-2-x-x---2-2-x-x-2------------|
A|x---2-x-x-0----------------------------0-x-0-x-0-x-x-3-0-2-x-x-2------------|
E|x-3-0-x-x------------------------------------------------0-x-x-0------------|

  or I'm free              I call the lights                        It begins
e|----------------------------------------------------------------------------|
B|----------------------------------------------------------------------------|
G|--------------------------------4-4-4-4-4-4-4-4-4-4-4-4-4-4-4-4-2-----------|
D|----------2-x-2-x-2-x-x---2-x-x-4-4-4-4-4-4-4-4-4-4-4-4-4-4-4-4-2-----------|
A|----------2-x-2-x-2-x-x---2-x-x-2-2-2-2-2-2-2-2-2-2-2-2-2-2-2-2-0-----------|
E|----------0-x-0-x-0-x-x-3-0-x-x----------------------------------------12s0-|

tonight oh lord it begins tonight Oh lord oh lord it begins tonight Oh lord oh
e|-----0---0---0--0--3---3---3---3---0---0---0---0--0--2---2---2---2--2--0---0-|
B|-----0---0---0--0--0---0---0---0---1---1---1---1--1--0---0---0---0--0--0---0-|
G|-----0---0---0--0--0---0---0---0---0---0---0---0--0--2---2---2---2--2--0---0-|
D|-2---2---2---2--2--0---0---0---0---2---2---2---2--2--1---1---1---1--1--2---2-|
A|-2---2---2---2--2--2---2---2---2---3---3---3---3--3--2---2---2---2--2--2---2-|
E|-0---0---0---0--0--3---3---3---3---------------------------------------0---0-|

 lord it begins tonight Cell door clicks open eye come alive Oh lord it begins
e|-0---0--0--3---3---3---3---0---0---0---0--0--0---0--0---0--0--0--2---2---2--|
B|-0---0--0--0---0---0---0---1---1---1---1--1--1---1--1---1--1--1--0---0---0--|
G|-0---0--0--0---0---0---0---0---0---0---0--0--2---2--2---2--2--2--2---2---2--|
D|-2---2--2--0---0---0---0---2---2---2---2--2--2---2--2---2--2--2--1---1---1--|
A|-2---2--2--2---2---2---2---3---3---3---3--3--0---0--0---0--0--0--2---2---2--|
E|-0---0--0--3---3---3---3----------------------------------------------------|

tonight Ha!
e|-----------------------------------------------------------------------------|
B|-----------------------------------------------------------------------------|
G|-----------------------------------------------------------------------------|
D|-----2p0------2p0---------2-x-2-x-2-x-x---2-x-x---2p0------2p0---------2-x-2-|
A|--------2p0------2p0------2-x-2-x-2-x-x---2-x-x------2p0------2p0------2-x-2-|
E|12s0-------3p0------3p0-3-0-x-0-x-0-x-x-3-0-x-x-0-------3p0------3p0-3-0-x-0-|

e|----------------------------------------------------------------------------|
B|----------------------------------------------------------------------------|
G|----------------------------------------------------------------------------|
D|-x-2-x-x---2----------------------------------------------------------------|
A|-x-2-x-x---2----------------------------------------------------------------|
E|-x-0-x-x-3-0----------------------------------------------------------------|


h = hammer on
p = pull off
s = slide
/ = slide up
\ = slide down
b = bend
v = vibrato
x = mute note
P.M. = palm mute
Suggest correction
What's this?
You can suggest a correction to this tab. Community and Mods will review your correction and vote to approve or reject it.
comments
We did not receive enough feedback on this tab! Please rate:
print report bad tab
1 2 3 4 5
2 comments total.
0 reply
abbydaddy03 196 wrote on March 11 2012, 12:03 pm

Took a lot of work but it looks to me like you nailed it!

0 reply
SpitfireUA 101 wrote on March 18 2012, 03:50 am

Thank you! I'm glad you liked it.

guest
You may want to rate the tab now too:
select rating
Please do not post tabs as comments. Select "correction" instead!