Oops, an error
Loading. Please wait.

Rise To Power Tab

1,079 views 1 this week
no commentswrite comment
1 2 3 4 5
1 last vote to show rating
add to favorites
launch autoscroll
font size
0
reset
how to read this tab
guitar tuner
Autoscroll
slow
fast
+/-
esc
set tempo
stop
Help us to improve Ultimate-Guitar.com Take our survey!
×
-------------------------------------------------------------------------------
                RISE TO POWER - Tom Morello: The Nightwatchman
-------------------------------------------------------------------------------
Tabbed by: Dennis Gess
Email: gtpck32@yahoo.com

Chords Used:

A minor (Am)
e|----|
b|--1-|
g|--2-|
d|--2-|
a|--0-|
e|----|

D minor (Dm)
e|--1-|
b|--3-|
g|--2-|
d|--0-|
a|----|
e|----|

E major (E#7)
e|----|
b|----|
g|--1-|
d|--2-|
a|--2-|
e|--0-|

Tuning: Standard
    Am              Dm            E#7             Am
e|------------------1--1----1---------------------------------|
B|--1--1----1-------2---2-----2--------------------1--1----1--|
G|--2---2-----2-----3----3-----3---1--1----1-------2---2---2--|
D|--2----2-----2-------------------2---2-----2-----2----2--2--|
A|--0------------------------------2----2-----2----0-------0--|
E|---------------------------------0--------------------------|

Play the above riff once, then repeat as necessary, with the lyrics.
The riff continues throughout the whole song, so it's not very hard.
Suggest correction
Give kudos to tab author, rate the tab!
1 2 3 4 5
comments
print report bad tab
guest
You may want to rate the tab now too:
select rating
Wanna post a correction for this tab? Suggest correction