Oops, an error
Loading. Please wait.

The Lights Are On In Spidertown Tab

version 1
version 1

Solo

Interactive

5,406 views 1 this week
no commentswrite comment
1 2 3 4 5
x 6
add to favorites
launch autoscroll
font size
0
reset
how to read this tab
guitar tuner
Autoscroll
slow
fast
+/-
esc
set tempo
stop
Help us to improve Ultimate-Guitar.com Take our survey!
×
Author
-------------------------------------------------------------------------------
             The Lights Are On In Spidertown - The Nightwatchman
-------------------------------------------------------------------------------
Tabbed by: Bas
Email: b_vice@hotmail.com


I saw there was a pretty good version of the chords already so I thought I'd
tab out this pretty awesome solo.. It's not too hard to play I guess, but sounds
great :)

Tuning: EADGBe

e|----7--7-7-7-7-7-9-10--9-7---------------------------------------------------|
B|---x-----------------------10-10-10~-10-10-10-10-10-8--7-8p7---7----7-7-7-7-7|
G|--x--------------------------------------------------------------9~----------|
D|-x---------------------------------------------------------------------------|
A|-----------------------------------------------------------------------------|
E|-----------------------------------------------------------------------------|

e|--------------------------------------7-7-7-7-9-10-10/12--10-9-10~----9-10-12|
B|-8-10--7-8p7---7---7-8-8p7-----------x-------------------------------x-------|
G|-------------9-------------9-7------x-------------------------------x--------|
D|-------------------------------9---x-------------------------------x---------|
A|-----------------------------------------------------------------------------|
E|-----------------------------------------------------------------------------|

e|-10-9-10-9----------9-10-12-12--10-10--9-9---------------9-10-12-10-9--------|
B|-----------10------x------------------------10-10--12-12--------------12-10--|
G|-------------11---x----------------------------------------------------------|
D|-----------------x-----------------------------------------------------------|
A|-----------------------------------------------------------------------------|
E|-----------------------------------------------------------------------------|

e|-----------------------------------------------------------------------------|
B|-----------------------------------------------------------------------------|
G|-11-10-9----9----------------------------------------------------------------|
D|---------12---12-9-9~\-------------------------------------------------------|
A|-----------------------------------------------------------------------------|
E|-----------------------------------------------------------------------------|


| /  slide up
| \  slide down
| h  hammer-on
| p  pull-off
| ~  vibrato
| +  harmonic
| x  Mute note
===============================================================================
Suggest correction
comments
print report bad tab
guest
You may want to rate the tab now too:
select rating
Wanna post a correction for this tab? Suggest correction