Oops, an error
Loading. Please wait.

The Lights Are On In Spidertown Chords

version 2
version 2

Whole song

Interactive

972 views 1 this week
1 commentread comment
1 2 3 4 5
x 3
add to favorites
launch autoscroll
font size
0
reset
transpose
0
reset
display chords
guitar tuner
Autoscroll
slow
fast
+/-
esc
set tempo
stop
Help us to improve Ultimate-Guitar.com Take our survey!
×
Author
By: Victor Cardenas November 24 2008
Artist: Tom Morello: The Nightwatchman
Album: The Fabled City
Song: The Lights Are On In Spidertown

**PLEASE COMMENT**
**PLEASE SEND CORRECTIONS TO CC1964CC@AOL.COM**
**PLEASE ROCK ON**

This is my first tab blah blah blah....saw him in concert NYC this past Friday, effin rocked!

But here is what I got...I realize there's chord tabs, so here's mine, rhythm & lead included.

Rhythm: I tabbed it 2 ways (just the rhythm), for the chord-savvy and the chord challenged

Figure out the rhythm but its Bm, D, A, Bm

"Chords"
MAIN RHYTHM
    Bm   D   A  Bm
E----2---2-------2---|
B----3---3---2---3---|
G----4---2---2---4---|
D----4-------2---4---|
A--------------------|
E--------------------|

OR

"Power chords"
E---------------------|
B---------------------|
G---------------------|
D---------------------|
A---9---12---7---9----|
E---7---10---5---7----|


BRIDGE
The sky is falling...falling down...
    G   D   A  Bm
E---3---2-------2---|
B---3---3---2---3---|
G-------2---2---4---|
D-----------2---4---|
A---2---------------|
E---3---------------|

The Sky is falling down...
    G   A   Bm
E---3---2---2---|
B---3---2---3---|
G-------2---4---|
D-----------4---|
A---2-----------|
E---3-----------|

The world's stopped turning, turning 'round
    G   D   Em F#m
E---3---2-------2---|
B---3---3-------2---|
G-------2-------2---|
D-----------2---4---|
A---2-------2---4---|
E---3-----------2---|

And the lights, are on in Spidertown Hey!
    G   A   Bm
E---3---2---2---|
B---3---2---3---|
G-------2---4---|
D-----------4---|
A---2-----------|
E---3-----------|

**Check the other great tab by Bas for the solo!**

Now for what I am somewhat glad for figuring out, here's the Lead guitar
E---------------------------------------|
B---------------------------------------|
G---------------------------------------|
D---------------------------------------|
A-------------5-5---5-7-5-5---5---------|
E---7---5-7------------------- -5-7-7---|
Suggest correction
Give kudos to tab author, rate the tab!
1 2 3 4 5
comments
print report bad tab
1 comment total.
0 reply
cc1964cc 25 Nov 28, 2008 12:42 PM

awesome tab man good work

guest
You may want to rate the tab now too:
select rating
Wanna post a correction for this tab? Suggest correction