Oops, an error
Loading. Please wait.

Until The End Tab

version 2
version 2

Whole song

Interactive

5,680 views 6 this week
8 commentsread comments
1 2 3 4 5
accurate
x 9
add to favorites
launch autoscroll
font size
0
reset
how to read this tab
guitar tuner
Autoscroll
slow
fast
+/-
esc
set tempo
stop
Help us to improve Ultimate-Guitar.com Take our survey!
×
Difficulty
intermediate
Here is 'Until the End', by The Nightwatchman. I hadn't seen any other tabs of this 
so I decided I would tab it for those who'd like to learn it.


E|-0-------0--------0------0------0------0----9------9------9----------------------------|
B|---7--------7--------7-----7------7-----7-----0------0------0-------7-0-7h-0-----------|
G|-----8--------8--------------0------0-----------0------0-------------------------------|
D|---------------------------------------------------------------------------------------|
A|-0-----------------------9---------------------------------------0---------------------|
E|--------------------------------------------9------------------------------------------|

Repeat
E|-0-------0--------0------0------0------0----9------9------9-----|
B|---7--------7--------7-----7------7-----7-----0------0------0---|
G|-----8--------8--------------0------0-----------0------0--------|
D|----------------------------------------------------------------|
A|-0-----------------------9--------------------------------------|
E|--------------------------------------------9-------------------|

Then it goes into this:
E|----------------0-----0-----0---0----0------0-----0-----0-----0------0-----0--------|
B|----7-0-7h-0------7----7-----7---7----7-------7----7------------7-----7-----7-------|
G|-------------0------8----8-----8---8----8-------0----0------------8-----8-----------|
D|----------------9-------------------------------------------------------------------|
A|-0------------------------------------------9-----------8-----0---------------------|
E|------------------------------------------------------------------------------------|

E|-9-------9----9----9----9-----------------0----0---|
B|---0------0----0----0----0--------------0----0-----|
G|-----0------0----0----0----0----------7----7-------|
D|------------------------------------8--------------|
A|----------------------------------8----------------|
E|-9------------------------------0------------------|


And then:
E|---0---------------0-0-0---------------------------------0-----0------------------------------|
B|---7---------------7-7-7---------------------------------7-----7------------------------------|
G|---8-------0-8-----0-0-0-----------0-0-0-----------------8-----8-------0-8--------------------|
D|---8--0-8----------8-8-8-----------0-0-0-----------------8-----8---0-8------------------------|
A|-0--------------9--9-9-9--8p-0-----8-8-8--------0-8h-0---0--0--0------------------------------|
E|--------------------------------9--9-9-9--0-8h------------------------------------------------|

Cont:
E|----0-0-0-----------------------------------------0--------------0-0-0-----------------------|
B|----7-7-7-----------------------------------------7--------------7-7-7-----------------------|
G|----0-0-0----------0--0-0-------------------------8------0-8-----0-0-0----------0-0-0--------|
D|----8-8-8----------0--0-0------------0-8h-0-------8--0-8---------8-8-8----------0-0-0--------|
A|-9--9-9-9--8p-0----7--7-7-------0-8h--------8-0---0-----------9--9-9-9--8p-0----8-8-8--------|
E|----------------8--8--8-8---0-8h---------------------------------------------9--9-9-9--------|

Cont:
E|--------------0-----0---------------0-0-0---------------------------------------------|
B|--------------7-----7---------------7-7-7---------------------------------------------|
G|-------=------8-----8-------0-8-----0-0-0--------------0------------------------------|
D|--------------8-----8---0-8---------8-8-8--------------0------------------------------|
A|-----0-8h-0---0--0--0------------9--9-9-9----8p-0------8------------------------------|
E|-0-8h--------------------------------------------------9------------------------------|
                                                       (12X)

Then:
"No one knows who gave the orders...."

    (5x)   (5x)   (5x)   (5X)
E|---0------0-------------0----------------------|  -Repeat 3 Times.
B|---7------7-------------7----------------------|
G|---8------0------0------8----------------------|
D|---8------8------0------8----------------------|
A|0--0---9--9------8---0--0----------------------|
E|--------------9--9-----------------------------|


Then:
"I cross my heart...."

     (5x)   (5x)    (5x)   (5x)
E|----0------0-------0----------------------------------|
B|----7------7-------7----------------------------------|
G|----8------0-------0------0---------------------------|
D|----8------8-------8------0---------------------------|
A|-0--0---9--9---9---9------8---------------------------|
E|-----------------------9--9---------------------------|


"I'll never turn...."

     (5x)    (5x)  (5x)   (5x)  (5x)   (5x)  (5x)  (5x)
E|----0--------------------0-----0-----------------------------|
B|----7--------------------7-----7-----------------------------|
G|----0-------0-----0------8-----8------0-----0-----0----------|
D|----8-------0-----0------8-----8------0-----0-----0----------|
A|-9--9-------8-----8---0--0--0--0------8-----8-----8----------|
E|---------9--9--9--9----------------9--9--9--9--9--9----------|


"Until the end..."

E|---0---------------0-0-0----------------------|
B|---7---------------7-7-7----------------------|
G|---8-------0-8-----0-0-0-----------0----------|
D|---8--0-8----------8-8-8-----------0----------|
A|-0--------------9--9-9-9--8p-0-----8----------|
E|--------------------------------9--9----------|
                                   (12x)

"Tonight's the test..."

    (5x)   (5x)   (5x)   (5X)
E|---0------0-------------0----------------------|  -Repeat 3 Times.
B|---7------7-------------7----------------------|
G|---8------0------0------8----------------------|
D|---8------8------0------8----------------------|
A|0--0---9--9------8---0--0----------------------|
E|--------------9--9-----------------------------|

"I don't got nothing...."

     (5x)   (5x)    (5x)   (5x)
E|----0------0-------0----------------------------------|
B|----7------7-------7----------------------------------|
G|----8------0-------0------0---------------------------|
D|----8------8-------8------0---------------------------|
A|-0--0---9--9---9---9------8---------------------------|
E|-----------------------9--9---------------------------|

"I'll never turn...."

     (5x)    (5x)  (5x)   (5x)  (5x)   (5x)  (5x)  (5x)
E|----0--------------------0-----0-----------------------------|
B|----7--------------------7-----7-----------------------------|
G|----0-------0-----0------8-----8------0-----0-----0----------|
D|----8-------0-----0------8-----8------0-----0-----0----------|
A|-9--9-------8-----8---0--0--0--0------8-----8-----8----------|
E|---------9--9--9--9----------------9--9--9--9--9--9----------|

"Until the end...."

E|---0---------------0-0-0----------------------|
B|---7---------------7-7-7----------------------|
G|---8-------0-8-----0-0-0-----------0----------|
D|---8--0-8----------8-8-8-----------0----------|
A|-0--------------9--9-9-9--8p-0-----8----------|
E|--------------------------------9--9----------|
                                   (12x)

"Ten trials, whos outcomes..."

    (5x)   (5x)   (5x)   (5X)
E|---0------0-------------0----------------------|  -Repeat 6 Times.
B|---7------7-------------7----------------------|
G|---8------0------0------8----------------------|
D|---8------8------0------8----------------------|
A|0--0---9--9------8---0--0----------------------|
E|--------------9--9-----------------------------|


"Two prayers I'm praying..."

Play softly:

    (5x)   (5x)   (5x)   (5X)
E|---0------0-------------0----------------------|  -Play once.
B|---7------7-------------7----------------------|
G|---8------0------0------8----------------------|
D|---8------8------0------8----------------------|
A|0--0---9--9------8---0--0----------------------|
E|--------------9--9-----------------------------|


"One promise I'm keeping....."

     (5x)   (5x)    (5x)   (5x)
E|----0------0-------0----------------------------------|
B|----7------7-------7----------------------------------|
G|----8------0-------0------0---------------------------|
D|----8------8-------8------0---------------------------|
A|-0--0---9--9---9---9------8---------------------------|
E|-----------------------9--9---------------------------|

"I'll never turn..."

     (5x)    (5x)  (5x)   (5x)  (5x)   (5x)  (5x)  (5x)
E|----0--------------------0-----0-----------------------------|
B|----7--------------------7-----7-----------------------------|
G|----0-------0-----0------8-----8------0-----0-----0----------|
D|----8-------0-----0------8-----8------0-----0-----0----------|
A|-9--9-------8-----8---0--0--0--0------8-----8-----8----------|
E|---------9--9--9--9----------------9--9--9--9--9--9----------|

"Until the end...."


E|---0---------------0-0-0-----------------------|
B|---7---------------7-7-7-----------------------|
G|---8-------0-8-----0-0-0------------0----------|
D|---8--0-8----------8-8-8------------0----------|
A|-0--------------9--9-9-9--8p-0------8----------|
E|--------------------------------9---9----------|
                                     (3x)


Ending:
E|--------------------------0~------------|
B|--------------------------7~------------|
G|--------------------------8~------------|
D|--------------------------8~------------|
A|---------0-8-0------------0~------------|
E|--0-9h----------9-0---------------------|
Suggest correction
comments
print report bad tab
8 comments total. Showing first comments.
0 reply
axman777 10 wrote on October 23 2006, 07:08 pm

Not a horrible tab, but needs work

0 reply
jbarr 42 wrote on March 20 2007, 11:31 pm

The song is played capo 7 half step down. And I'm pretty sure the general progression is Am C G Am.

0 reply
jakethequake91 10 wrote on April 23 2007, 06:32 pm

jbarr, why didn't you just say sixth fret for the capo, it's the same thing....anyway, i think the tab is good, jbarr's right, you coulda just said the chords, and you should have said that there was a capo used, but oh well, and the (5x) things are a little off.... overall, it's right, nice

guest
You may want to rate the tab now too:
select rating
Wanna post a correction for this tab? Suggest correction