Oops, an error
Loading. Please wait.

Whatever It Takes Tab

version 2
version 2

Whole song

Interactive

2,573 views 1 this week
no commentswrite comment
1 2 3 4 5
accurate
x 3
add to favorites
launch autoscroll
font size
0
reset
how to read this tab
guitar tuner
Tab Pro tools
  • play this tab
  • loop segment
  • change instrument
  • show fretboard
  • metronome
×
Best way to learn
"Whatever It Takes"
Autoscroll
slow
fast
+/-
esc
set tempo
stop
Contributor
SONG:  Whatever it Takes
ARTIST:  The Nightwatchman
ALBUM:  The Fabled City

Intro x2

e|--------------------------------------------------------|
B|--------------------------------------------------------|
G|--4----4----4----4--------------------------------------|
D|----6----6----6----6-4-6--6--4----4----4----4-----------|
A|-------------------------------6----6----6----6-4-6--6--|
E|--------------------------------------------------------|

e|--------------------------------------------------------|
B|--------------------------------------------------------|
G|--------------------------------------------------------|
D|------------------------------------------------------4-|
A|--4-2--4-2--4-2--4-2---2--2--2----2----2----2-----4h6---|
E|---------------------4---------4----4----4----4-2-------|



Verse 1 x3

e|-------------------|----|-------------------|
B|-------------------|    |-------------------|
G|-----4-------------| x3 |-----4-------------|
D|-------6-4--6-4-6--|    |-------6-4--6-4----|
A|-------------------|    |-------------------|
E|--4----------------|----|--4-------------2--|



Pre-Chorus

e|--------------------------|
B|--------------------------|
G|--------------------------|
D|-----------------4--4--4--|
A|-----------4--4--4--4--4--|
E|--2--2--2--2--2--2--2--2--|



Chorus x2

e|-----------------------------------|
B|-----------------------------------|
G|-----------------------------------|
D|--6-6-6-6-6-6-6-6-4-4-4-4-4-4-4-4--|
A|--6-6-6-6-6-6-6-6-4-4-4-4-4-4-4-4--|
E|--4-4-4-4-4-4-4-4-2-2-2-2-2-2-2-2--|

e|-----------------------------------|
B|-----------------------------------|
G|--8-8-8-8-8-8-8-8-6-6-6-6-6-6-6-6--|
D|--8-8-8-8-8-8-8-8-6-6-6-6-6-6-6-6--|
A|--6-6-6-6-6-6-6-6-4-4-4-4-4-4-4-4--|
E|-----------------------------------|



Verse 2 x3

e|-------------------|----|-------------------|
B|-------------------|    |-------------------|
G|-----4-------------| x3 |-----4-------------|
D|-------6-4--6-4-6--|    |-------6-4--6-4----|
A|-------------------|    |-------------------|
E|--4----------------|----|--4-------------2--|



Pre-Chorus

e|--------------------------|
B|--------------------------|
G|--------------------------|
D|-----------------4--4--4--|
A|-----------4--4--4--4--4--|
E|--2--2--2--2--2--2--2--2--|



Chorus x2

e|-----------------------------------|
B|-----------------------------------|
G|-----------------------------------|
D|--6-6-6-6-6-6-6-6-4-4-4-4-4-4-4-4--|
A|--6-6-6-6-6-6-6-6-4-4-4-4-4-4-4-4--|
E|--4-4-4-4-4-4-4-4-2-2-2-2-2-2-2-2--|

e|-----------------------------------|
B|-----------------------------------|
G|--8-8-8-8-8-8-8-8-6-6-6-6-6-6-6-6--|
D|--8-8-8-8-8-8-8-8-6-6-6-6-6-6-6-6--|
A|--6-6-6-6-6-6-6-6-4-4-4-4-4-4-4-4--|
E|-----------------------------------|



Solo

e|----------------------------------|
B|--------------------------17--17--|
G|--16--16--14--14--16--16--18--18--|
D|----------------------------------|
A|----------------------------------|
E|----------------------------------|

e|---------------------------------------------------|
B|---------------------------------------------------|
G|--19-17-16-14-19-17-16-14-19-17-16-14-15-14-12-10--|
D|--20-18-17-15-20-18-17-15-20-18-17-15-16-15-13-11--|
A|---------------------------------------------------|
E|---------------------------------------------------|



Verse 3

e|-------------------|----|-------------------|
B|-------------------|    |-------------------|
G|-----4-------------| x3 |-----4-------------|
D|-------6-4--6-4-6--|    |-------6-4--6-4----|
A|-------------------|    |-------------------|
E|--4----------------|----|--4-------------2--|

e|-------------------|
B|-------------------|   
G|-----4-------------| x2
D|-------6-4--6-4-6--| 
A|-------------------|   
E|--4----------------|



Chorus x4

e|-----------------------------------|
B|-----------------------------------|
G|-----------------------------------|
D|--6-6-6-6-6-6-6-6-4-4-4-4-4-4-4-4--|
A|--6-6-6-6-6-6-6-6-4-4-4-4-4-4-4-4--|
E|--4-4-4-4-4-4-4-4-2-2-2-2-2-2-2-2--|

e|-----------------------------------|
B|-----------------------------------|
G|--8-8-8-8-8-8-8-8-6-6-6-6-6-6-6-6--|
D|--8-8-8-8-8-8-8-8-6-6-6-6-6-6-6-6--|
A|--6-6-6-6-6-6-6-6-4-4-4-4-4-4-4-4--|
E|-----------------------------------|



Outro x2

e|--------------------------------------------------------|
B|--------------------------------------------------------|
G|--4----4----4----4--------------------------------------|
D|----6----6----6----6-4-6--6--4----4----4----4-----------|
A|-------------------------------6----6----6----6-4-6--6--|
E|--------------------------------------------------------|

e|--------------------------------------------------------|
B|--------------------------------------------------------|
G|--------------------------------------------------------|
D|------------------------------------------------------4-|
A|--4-2--4-2--4-2--4-2---2--2--2----2----2----2-----4h6---|
E|---------------------4---------4----4----4----4-2-------|



End on

e|-----|
B|-----|
G|-----|
D|-----|
A|-----|
E|--4--|



****okay... i know that this tab is NOT 100 percent correct,
but hopefully if you think you've figured something out, leave a comment.
but hopefully we can fix it before you rate it, if you choose to rate it poorly.

Thanks!
comments
We did not receive enough feedback on this tab! Please rate:
print report bad tab
1 2 3 4 5
I want to post or [tab]
guest
You may want to rate the tab now too:
select rating
Please do not post tabs as comments. Select "correction" instead!