Oops, an error
Loading. Please wait.

Whatever It Takes Tab

version 3
version 3

Whole song

Interactive

6,210 views 3 this week
2 commentsread comments
1 2 3 4 5
please rate
add to favorites
launch autoscroll
font size
0
reset
how to read this tab
guitar tuner
Autoscroll
slow
fast
+/-
esc
set tempo
stop
Help us to improve Ultimate-Guitar.com Take our survey!
×
Author
Difficulty
intermediate
-------------------------------------------------------------------------------
                            Whatever it Takes - Tom Morello: The Nightwatchman
-------------------------------------------------------------------------------

Tuning: Standard

e|--------------------------|-------------------------------------------------|
B|--------------------------|-------------------------------------------------|
G|--------------------------|-------------------------------------------------|
D|-9-6--9-6--9-6--9-6---6-6-|-4----4----4----4--------------------------------|
A|--------------------9-----|---6----6----6----6-4-6-6------------------------|
E|--------------------------|-------------------------------------------------|

e|--------------------------|-------------------------------------------------|
B|--------------------------|-------------------------------------------------|
G|--------------------------|-------------------------------------------------|
D|--------------------------|--------------------------4----------------------|
A|-4-2--4-2--4-2--4-2---2-2-|----------------------4h6------------------------|
E|--------------------4-----|-7-4--7-4--7-4--7-4-7----------------------------|

e|-------------------|     |-------------------|
B|-------------------|     |-------------------|
G|----4--------------|     |---4---------------|
D|-6----6-4-6---6----|     |-6---6-4-6---6-----|
A|-------------------|     |-------------------|
E|-4-----------4--4--| x3  |-4---------4--4----|

e|---------|---------|---------|---------|
B|---------|---------|---------|---------|
G|---------|---------|---------|---------|
D|-4-4-4-4-|-4-4-4-4-|-4-4-4-4-|-4-4-4-4-|
A|---------|---------|---------|---------|
E|-2-2-2-2-|-2-2-2-2-|-2-2-2-2-|-2-2-2-2-|

Strum to the beat (8 8th notes)
   G#    F#    D#m      C#     C#sus4  C#
e|------|------|-6----|-----------------|
B|-4----|-2----|-7----|-6-6-6-6-7-7-6-6-|
G|-4----|-3----|-8----|-6-6-6-6-6-6-6-6-|
D|-6----|-4----|-8----|-6-6-6-6-6-6-6-6-|
A|-6----|-4----|-6----|-4-4-4-4-4-4-4-4-|
E|-4----|-2----|------|-----------------|

| /  slide up
| \  slide down
| h  hammer-on
| p  pull-off
| ~  vibrato
| +  harmonic
| x  Mute note
===============================================================================
Suggest correction
Give kudos to tab author, rate the tab!
1 2 3 4 5
comments
print report bad tab
2 comments total.
0 reply
courtkid1012 93 wrote on November 25 2008, 03:24 pm

My fault, I forgot something apparently. it says:

e|-------------------| |-------------------|
B|-------------------| |-------------------|
G|----4--------------| |---4---------------|
D|-6----6-4-6---6----| |-6---6-4-6---6-----|
A|-------------------| |-------------------|
E|-4-----------4--4--| x3 |-4---------4--4----|

after the x3, the last notes in that part are:

e|---|
A|---|
D|---|
G|-4-|
B|---|
E|-2-|

so it should say:

e|-------------------| |-------------------|
B|-------------------| |-------------------|
G|----4--------------| |---4---------------|
D|-6----6-4-6---6----| |-6---6-4-6---6---4--|
A|-------------------| |-------------------|
E|-4-----------4--4--| x3 |-4---------4--4--2--|

0 reply
courtkid1012 93 wrote on November 25 2008, 03:26 pm

And I forgot.. adding onto that above...

That whole line you play twice which you should get just from listening to the song.

So you play that part x3, then the part after it, then repeat (play the x3 and the next line again).

guest
You may want to rate the tab now too:
select rating
Please do not post tabs as comments. Select "correction" instead!