Oops, an error
Loading. Please wait.

The Road I Must Travel Tab

2,635 views 1 this week
no commentswrite comment
1 2 3 4 5
excellent!
x 4
add to favorites
launch autoscroll
font size
0
reset
how to read this tab
guitar tuner
Autoscroll
slow
fast
+/-
esc
set tempo
stop
Help us to improve Ultimate-Guitar.com Take our survey!
×
Difficulty
novice
http://www.nightwatchmanmusic.com/

Riff:

e|--------------------4---------------4---------------------------|
B|----5---5--------5h7----7-5-7----5h7----7-5-7p5s2--------5-7-5--|
G|-4h6------6-4----------------------------------------4-6--------|
D|----------------------------------------------------------------|
A|----------------------------------------------------------------|
E|----------------------------------------------------------------|


Chord Progression:

      E    B   C#m   B   C#m   A    E
e|----0----2----4----2----4----0----0----|
B|----0----4----5----4----5----2----0----|
G|----1----4----6----4----6----2----1----|  (repeats)
D|----2----4----6----4----6----2----2----|
A|----2----2----4----2----4----0----2----|
E|----0----x----x----x----x----x----0----|


With Lyrics:

 E                         B
Well I climbed the seven summits
       C#m            B
And I swam the seven seas
        C#m           A
But the road I must travel
                  E
Its end I cannot see
                  B
I fought in the jungles
       C#m            B
And I fought in the streets
        C#m           A
But the road I must travel
                  E
Its end I cannot see
Once I had a reason
Don't know what it could be
But the road I must travel
Its end I cannot see
Well I sang to myself
That I want to be free
But the road I must travel
Its end I cannot see

Chorus: Na na na na na....

I walked the empty desert
And I was burned in the heat
But the road I must travel
Its end I cannot see
I crossed the frozen wasteland
And in the bitter cold did freeze
But the road I must travel
Its end I cannot see
And I will knock on every door
For I do not have a key
And the road I must travel
Its end I cannot see
Well I sang to myself
That I want to be free
But the road I must travel
Its end I cannot see

Chorus

They shot a man in Soho
Couldn't guess his age
I found his empty journal
I filled up every page
I called up my state senator
They said he wasn't there
The secretary took my name
And man she sounded scared
So I counted my misfortunes
I added up the blame
I picked through all the garbage
I checked off all the names
I read in the newspaper
They'd questioned all my friends
They hoped that they could my ass
Before I struck again
So I sang to myself
That I want to be free
But the road I must travel
Its end I cannot see

So when thirsty I will drink
When hungry I will steal
But the road I must travel
Its end I cannot see
So tonight I walk in anger
With worn shoes on my feet
And the road I must travel
Its end I cannot see
And I will sing to myself
That I'm gonna be free
But the road I must travel
Its end I cannot see

Chorus

There's a sign along the highway
But it's too dark now to read
Suggest correction
comments
print report bad tab
guest
You may want to rate the tab now too:
select rating
Please do not post tabs as comments. Select "correction" instead!