Oops, an error
Loading. Please wait.

Dim Sum Girl Tab

857 views 1 this week
no commentswrite comment
1 2 3 4 5
please rate
add to favorites
launch autoscroll
font size
0
reset
how to read this tab
guitar tuner
Autoscroll
slow
fast
+/-
esc
set tempo
stop
Help us to improve Ultimate-Guitar.com Take our survey!
×
Author
Difficulty
novice
-------------------------------------------------------------------------------
                             Dim Sum Girl - The Notoroious MSG
-------------------------------------------------------------------------------
Tabbed by:Joseph to the Kido
Email:Jckido@gmail.com

Tuning:
   |RIFF A
e|---------------------------------------------------------------------------|
B|----5------5-6-5------------5-------5-6-5--------------5-------5-6-5-------|
G|-5-----5-----------5------------5-----------5--------------5-----------5---|
D|------------------------7-------------------------3------------------------|
A|---------------------------------------------------------------------------|
E|---------------------------------------------------------------------------|
            END RIFF A|
e|---------------------|
B|-----5-------5-6-5---|
G|---------5----------5|
D|-5-------------------|
A|---------------------|
E|---------------------|
   |RIFF B
e|---------------------------------------------------------------------------|
B|------5---5-6-5---------------5---5-6-5--------------5---5-6-5-------------|
G|-5--5---5--------5-(Xtwo)-------5-------5-(Xtwo)-------5-------5-(xone)----|
D|--------------------------7-7--------------------3-3-----------------------|
A|---------------------------------------------------------------------------|
E|---------------------------------------------------------------------------|
                              END RIFF B|
e|---------------3-----------------------------------------------------------|
B|-----5---5-6-5-------------5---5-6-5---------------------------------------|
G|-------5--------(Xone)-------5-------5-(Xtwo)------------------------------|
D|-3-3-------------------5-5-------------------------------------------------|
A|---------------------------------------------------------------------------|
E|---------------------------------------------------------------------------|
Basically in a nutshell thats the whole song its not hard to figure out the pattern and the beat 
http://www.notoriousmsg.com/
Suggest correction
Give kudos to tab author, rate the tab!
1 2 3 4 5
comments
print report bad tab
guest
You may want to rate the tab now too:
select rating
Wanna post a correction for this tab? Suggest correction