Oops, an error
Loading. Please wait.

Der Korper Bin Ich Tab

version 1
version 1

Whole song

46 views 1 this week
no commentswrite comment
1 2 3 4 5
please rate
add to favorites
launch autoscroll
font size
0
reset
how to read this tab
guitar tuner
Tab Pro tools
  • play this tab
  • loop segment
  • change instrument
  • show fretboard
  • metronome
Autoscroll
slow
fast
+/-
esc
set tempo
stop
#----------------------------------PLEASE NOTE---------------------------------#
#This file is the author's own work and represents their interpretation of the #
#song. You may only use this file for private study, scholarship, or research. #
#------------------------------------------------------------------------------#

Date: 23 Aug 01 20:00:00 CET
From: Thiom Gerhardt
Subject: Forgot the attachment


                     Band:The Now Noise!
                     Song:Der K?rper bin ich
                     from the album "Gesch?ndet, Ermordet & Zerhackt"


Intro/Refrain Riff                                                        4x
E||-----------------------------------|-----------------------------------||
B||-----------------------------------|-----------------------------------||
G||*----------------------------------|----------------------------------*||
D||*------------------------------2---|----------------------------------*||
A||-------------------7-7-7-7-7-7-2---|------------------7-7-7-7-7-7-7-7--||
E||---0-0-0-0-5-5-5-5-------------0-0-|--0-0-0-0-5-5-5-5------------------||


                                                       4x
---------------------------|---------------------------||
---------------------------|---------------------------||
*--------------------------|--------------------------*||
*--2-----2--------2-----2--|--------2-----------------*||
---2-----2--------2-----2--|--------2-----------3--2---||
---0--0--0--0--0--0--0--0--|--0--0--0--0--3--2---------||


Strophe (Riff A)
-------------------------------------------|
-------------------------------------------|
*------------------------------------------|
*------------------------------------------|
-------------------------------------------|
---12-12-12-12-12-12-0-0-0-0-0-0-12-12-0-0-|

--------------------------------------------|
--------------------------------------------|
--------------------------------------------|
--------------------------------------------|
--------------------------------------------|
--12-12-12-12-12-12-0-0-0-0-0-0-12-12-12-12-|

------------------------------------------|
------------------------------------------|
------------------------------------------|
------------------------------------------|
------------------------------------------|
--11-11-11-11-11-11-0-0-0-0-0-0-11-11-0-0-|


                                             4x Bridge (Riff B)
---------------------------------------------||-------------------------|
---------------------------------------------||-------------------------|
--------------------------------------------*||*------------------------|
--------------------------------------------*||*------------------------|
---------------------------------------------||-----------11------10----|
--11-11-11-11-11-11-0-0-0-0-0-0-11-11-11-11--||---8----x----------------|


                         4x Chorus (Riff C)
-------------------------||---------------------------|------------------------|
-------------------------||---------------------------|------------------------|
------------------------*||*--------------------------|------------------------|
------------------------*||*--2--------------------2--|------------------------|
--8----------------------||---2--5--4--3--5--4--3--2--|----5--4--3--5--4--3----|
-------x--10------11-----||---0--5--4--3--5--4--3--0--|----5--4--3--5--4-------|


                                                     4x
--------------------------|--------------------------||
--------------------------|--------------------------||
--------------------------|-------------------------*||
--2--------------------2--|-------------------5--3--*||
--2--5--4--3--5--4--3--2--|----5--4--3--5--4--5--3---||
--0--5--4--3--5--4--3--0--|----5--4--3--5--4---------||


Guitar-Bridge
--------------------------|-----------------------|-------------------|
--------------------------|-----------------------|-------------------|
--------------------------|-----------------------|-------------------|
--5--4--3-----------------|--2--------------------|--2----------------|
-----------4--3--2--------|--2-----3----2----3----|--2----------------|
--------------------3--2--|--0--x--3----2----3----|--0----------------|


 Outro (Riff D)
|-----------------------------------|----------------------------------|
|-----------------------------------|----------------------------------|
|*----------------------------------|----------------------------------|
|*----------------------------------|----------------------------------|
|---6-6-6-6-------------------------|--6-6-6-6-------------------------|
|-----------7-7-6-6-0-0-5-5-6-6-0-0-|----------7-7-6-6-0-0-5-5-6-6-0-0-|


                                                                     12x
----------------------------------|-----------------------------------||
----------------------------------|-----------------------------------||
----------------------------------|----------------------------------*||
----------------------------------|----------------------------------*||
--4-4-4-4-------------------------|--4-4-4-4--------------------------||
----------5-5-4-4-0-0-4-4-5-5-0-0-|----------5-5-4-4-0-0-4-4-5-5-0-0--||

-----------------------|-------------------|--------------------||
-----------------------|-------------------|--------------------||
-----------------------|-------------------|--------------------||
--2--------------------|--2----------------|--------------------||
--2-----3----2----3----|--2----------------|--2-----------------||
--0--x--3----2----3----|--0----------------|--0--x--------------||
comments
We did not receive enough feedback on this tab! Please rate:
print report bad tab
1 2 3 4 5
I want to post or [tab]
guest
You may want to rate the tab now too:
select rating
Please do not post tabs as comments. Select "correction" instead!