Oops, an error
Loading. Please wait.

Gedarmerausch Tab

version 1
version 1

Whole song

15 views 1 this week
no commentswrite comment
1 2 3 4 5
please rate
add to favorites
launch autoscroll
font size
0
reset
how to read this tab
guitar tuner
Tab Pro tools
  • play this tab
  • loop segment
  • change instrument
  • show fretboard
  • metronome
Autoscroll
slow
fast
+/-
esc
set tempo
stop
#----------------------------------PLEASE NOTE---------------------------------#
#This file is the author's own work and represents their interpretation of the #
#song. You may only use this file for private study, scholarship, or research. #
#------------------------------------------------------------------------------#

Date: 23 Aug 01 20:00:00 CET
From: Thiom Gerhardt
Subject: Forgot the attachment


                     Band:The Now Noise!
                     Song:Ged?rmerausch
                     from the album "Gesch?ndet, Ermordet & Zerhackt"

Intro
E||------------------------|-----------------------|------------------------|
B||------------------------|-----------------------|------------------------|
G||*-----------------------|-----------------------|------------------------|
D||*-----------------------|-----------------------|------------------------|
A||---2--------2------7----|--2--------2------9----|--2--------2------10----|
E||---0--0--0--0-----------|--0--0--0--0-----------|--0--0--0--0------------|

----------------------------|--------------------------|
----------------------------|--------------------------|
----------------------------|--------------------------|
------------------7--10--9--|----------------7--10--9--|
--2--------7--10------------|--7------7--10------------|
--0--0--0-------------------|--------------------------|

--------------------------|---------------------------|
--------------------------|---------------------------|
--------------------------|---------------------------|
----------------7--10--9--|-----------------7--10--9--|
--9------7--10------------|--10------7--10------------|
--------------------------|---------------------------|


                                 Strophe (Riff A)
-------------------------------||-----------------------------------|
-------------------------------||-----------------------------------|
------------------------------*||*----------------------------------|
------7--10--9--7-------------*||*----------------------------------|
--10---------------10--9--10---||-----------------------------------|
-------------------------------||---0-0-0-0-0-0-0-0-0-0-0-0-0-0-0-0-|

-------------------------------|----------------------------------|
-------------------------------|----------------------------------|
-------------------------------|----------------------------------|
-------------------------------|----------------------------------|
--7--10------9--10------7--10--|----------------------------------|
---------x-x--------x-x--------|--8-8-8-8-8-8-8-8-8-8-8-8-8-8-8-8-|

------------------------------|----------------------------------|
------------------------------|----------------------------------|
------------------------------|----------------------------------|
------------------------------|----------------------------------|
--7--10------9--10------7--9--|----------------------------------|
---------x-x--------x-x-------|--3-3-3-3-3-3-3-3-3-3-3-3-3-3-3-3-|

-------------------------------|----------------------------------|
-------------------------------|----------------------------------|
-------------------------------|----------------------------------|
------------------------7------|----------------------------------|
--7--10------9--10---------10--|----------------------------------|
---------x-x--------x-x--------|--7-7-7-7-7-7-7-7-7-7-7-7-7-7-7-7-|


                                 (Riff B)
-------------------------------||---------------------------------|
-------------------------------||---------------------------------|
------------------------------*||*--------------------------------|
------------------------------*||*--------------------------------|
--7--10------9--10------7--9---||---2-----------10----------7--9--|
---------x-x--------x-x--------||---0-0-0-0-0-0-----0-0-0-0-------|

--------------------------------|--------------------------------|
--------------------------------|--------------------------------|
--------------------------------|--------------------------------|
--------------------------------|--------------------------------|
--2-----------10----------7--9--|--------------10----------7--9--|
--0-0-0-0-0-0-----0-0-0-0-------|--8-8-8-8-8-8-----8-8-8-8-------|


                                    Refrain (Riff C)
---------------------------------||---------------------------------------|
---------------------------------||---------------------------------------|
--------------------------------*||*--------------------------------------|
--------------------------------*||*--------------------------------------|
--------------10----------7--9---||---------------------------------------|
--8-8-8-8-8-8-----8-8-8-8--------||---0--0--0--0--0--0--0--0--0--0--0--0--|

--------------------------------------|--------------------------------------|
--------------------------------------|--------------------------------------|
--------------------------------------|--------------------------------------|
--------------------------------------|--------------------------------------|
--------------------------------------|--3--3--3--3--3--3--3--3--3--3--3--3--|
--0--0--0--0--0--0--0--0--0--0--0--0--|--------------------------------------|

--------------------------------------|--------------------------------------|
--------------------------------------|--------------------------------------|
--------------------------------------|--------------------------------------|
--------------------------------------|--------------------------------------|
--3--3--3--3--3--3--3--3--3--3--3--3--|--------------------------------------|
--------------------------------------|--3--3--3--3--3--3--3--3--3--3--3--3--|

--------------------------------------|--------------------------------------|
--------------------------------------|--------------------------------------|
--------------------------------------|--------------------------------------|
--------------------------------------|--------------------------------------|
--------------------------------------|--2--2--2--2--2--2--2--2--2--2--2--2--|
--3--3--3--3--3--3--3--3--3--3--3--3--|--------------------------------------|


                                          Riff D
---------------------------------------||-----------------------------|
---------------------------------------||-----------------------------|
--------------------------------------*||*----------------------------|
--------------------------------------*||*----------5--4--------------|
--2--2--2--2--2--2--2--2--2--2--2--2---||---2-------3--2--2--4--5--4--|
---------------------------------------||---0----x--------0--2--3--2--|


                            Riff E
--------------------------||-----------------------------------|
--------------------------||-----------------------------------|
-------------------------*||*----------------------------------|
-------------------5--4~-*||*----------------------------------|
--2-------5--8--7---------||---2-------------------------------|
--0----x------------------||---0-0-0-0-0-0-7-0-0-0-0-0-9-0-0-0-|

-----------------------------------|----------------------------------|
-----------------------------------|----------------------------------|
-----------------------------------|----------------------------------|
-----------------------------------|----------------------------------|
-----------------------------------|--2-------------------------------|
--10-0-0-0-0-0-9-0-0-0-0-0-7-0-0-0-|--0-0-0-0-0-0-7-0-0-0-0-0-9-0-0-0-|

--------------------------------|----------------------------------|
--------------------------------|----------------------------------|
--------------------------------|----------------------------------|
--------------------------------|----------------------------------|
-----------------------2--5--6--|--2-------------------------------|
--10-0-0-0-0-0-9-0-0-0-0--3--4--|--0-0-0-0-0-0-7-0-0-0-0-0-9-0-0-0-|

-----------------------------------|----------------------------------|
-----------------------------------|----------------------------------|
-----------------------------------|----------------------------------|
-----------------------------------|----------------------------------|
-----------------------------------|--2-------------------------------|
--10-0-0-0-0-0-9-0-0-0-0-0-7-0-0-0-|--0-0-0-0-0-0-7-0-0-0-0-0-9-0-0-0-|

-------------------------------||
-------------------------------||
------------------------------*||
------------------------------*||
---------------5--6-----4--5---||
--10-0-0-0-0-0-3--4--0--2--3---||
comments
We did not receive enough feedback on this tab! Please rate:
print report bad tab
1 2 3 4 5
I want to post or [tab]
guest
You may want to rate the tab now too:
select rating
Please do not post tabs as comments. Select "correction" instead!