Oops, an error
Loading. Please wait.

Kindheitstraum Tab

version 1
version 1

Whole song

35 views 1 this week
no commentswrite comment
1 2 3 4 5
please rate
add to favorites
launch autoscroll
font size
0
reset
how to read this tab
guitar tuner
Tab Pro tools
  • play this tab
  • loop segment
  • change instrument
  • show fretboard
  • metronome
×
Best way to learn
"Kindheitstraum"
Autoscroll
slow
fast
+/-
esc
set tempo
stop
#----------------------------------PLEASE NOTE---------------------------------#
#This file is the author's own work and represents their interpretation of the #
#song. You may only use this file for private study, scholarship, or research. #
#------------------------------------------------------------------------------#

Date: 23 Aug 01 20:00:00 CET
From: Thiom Gerhardt
Subject: Forgot the attachment


                     Band:The Now Noise!
                     Song:Kindheitstraum
                     from the album "Gesch?ndet, Ermordet & Zerhackt"

Intro/Refrain
E||-----------------------------|----------------------------|
B||-----------------------------|----------------------------|
G||*----------------------------|----------------------------|
D||*----------------------------|----------------------------|
A||-------------------5----6----|------------------6----3----|
E||---0-0-0-0-0-0-0-0-3----4----|--0-0-0-0-0-0-0-0-4----1----|


                                                    4x
----------------------------|-----------------------||--------------------|
----------------------------|-----------------------||--------------------|
----------------------------|----------------------*||--------------------|
----------------------------|----------------------*||--2--------2--------|
------------------5----6----|--5----3----5----6-----||--2--------2--------|
--0-0-0-0-0-0-0-0-3----4----|--3----1----3----4-----||--0--------0--------|


Strophe (Riff A)
|-----------------------------------|----------------------------------|
|-----------------------------------|----------------------------------|
|*----------------------------------|----------------------------------|
|*----------------------------------|----------------------------------|
|-----------------------------------|--2-2-2-2-2-2-2-2---------2-2-2-2-|
|---0-0-0-0-0-0-0-0-2-2-2-2-3-3-3-3-|------------------3-3-3-3---------|

----------------------------------|----------------------------------|
----------------------------------|----------------------------------|
----------------------------------|----------------------------------|
----------------------------------|----------------------------------|
--1-1-1-1-1-1-1-1-1-1-1-1-1-1-1-1-|--3-3-3-3-3-3-3-3-3-3-3-3-3-3-3-3-|
----------------------------------|--1-1-1-1-1-1-1-1-1-1-1-1-1-1-1-1-|

----------------------------------|----------------------------------|
----------------------------------|----------------------------------|
----------------------------------|----------------------------------|
----------------------------------|----------------------------------|
----------------------------------|--2-2-2-2-2-2-2-2---------2-2-2-2-|
--0-0-0-0-0-0-0-0-2-2-2-2-3-3-3-3-|------------------3-3-3-3---------|

----------------------------------|----------------------------------|
----------------------------------|----------------------------------|
----------------------------------|----------------------------------|
----------------------------------|----------------------------------|
--1-1-1-1-1-1-1-1-1-1-1-1-1-1-1-1-|--6-6-6-6-6-6-6-6-5-5-5-5-5-5-5-5-|
----------------------------------|----------------------------------|


                       2x  Riff B
-----------------------||----------------------------------|
-----------------------||----------------------------------|
----------------------*||*---------------------------------|
--5----4--------------*||*---------------------------------|
--3----2----2----4-----||---2------------------------------|
------------0----2-----||---0--0-0-0-0-0-0-0-0-0-0-0-0-0-0-|

----------------------|---------------------------------|----------------------|
----------------------|---------------------------------|----------------------|
----------------------|---------------------------------|----------------------|
--5----4--------------|---------------------------------|--5----4--------------|
--3----2----2----4----|--2------------------------------|--3----2----2----4----|
------------0----2----|--0--0-0-0-0-0-0-0-0-0-0-0-0-0-0-|------------0----2----|


                          Break
-----------------------||--------------------|--------------------|
-----------------------||--------------------|--------------------|
----------------------*||--------------------|--------------------|
----------------------*||--2--------2--------|--2--------2--------|
--5----4----3----4-----||--2--------2--------|--2--------2--------|
--3----2----1----2-----||--0--------0--------|--0--------0--------|


 Riff C
|---------------------------------|--------------------------------|
|---------------------------------|--------------------------------|
|*--------------------------------|--------------------------------|
|*--------------------------------|--------------------------------|
|---2--------------2--------------|--2--------------4----5----7----|
|---0--0-0-0-0-0-0-0--0-0-0-0-0-0-|--0--0-0-0-0-0-0-2----3----5----|

--------------------------------|--------------------------------|
--------------------------------|--------------------------------|
--------------------------------|--------------------------------|
--------------------------------|--------------------------------|
--2--------------2--------------|--2--------------7----5----4----|
--0--0-0-0-0-0-0-0--0-0-0-0-0-0-|--0--0-0-0-0-0-0-5----3----2----|

--------------------------------|--------------------------------|
--------------------------------|--------------------------------|
--------------------------------|--------------------------------|
--------------------------------|--------------------------------|
--2--------------2--------------|--2--------------4----5----7----|
--0--0-0-0-0-0-0-0--0-0-0-0-0-0-|--0--0-0-0-0-0-0-2----3----5----|


                                                                  2x
--------------------------------|---------------------------------||
--------------------------------|---------------------------------||
--------------------------------|--------------------------------*||
--------------------------------|--5----7----5-------------------*||
-----------------5----7----8----|-----------------8----7----5-----||
--5----7----8-------------------|---------------------------------||


 Riff D
--------------------|-------------------|-------------------|
--------------------|-------------------|-------------------|
*-------------------|-------------------|-------------------|
*--9----------------|--7----------------|--9----------------|
---7----------------|--5----------------|--7----------------|
--------------------|-------------------|-------------------|


                      2x  Outro
----------------------||-------------------------|-------------------|--||
----------------------||-------------------------|-------------------|--||
---------------------*||*------------------------|-------------------|--||
---------------------*||*------------------------|--2----------------|--||
--10------9-----------||---2------------3--2--3--|--2----------------|--||
--8-------7-----------||---0------------3--2--3--|--0----------------|--||
comments
We did not receive enough feedback on this tab! Please rate:
print report bad tab
1 2 3 4 5
I want to post or [tab]
guest
You may want to rate the tab now too:
select rating
Please do not post tabs as comments. Select "correction" instead!