Oops, an error
Loading. Please wait.

An Aptly Fictional Description Tab

version 4
version 4

Whole song

2,057 views 1 this week
2 commentsread comments
1 2 3 4 5
please rate
add to favorites
launch autoscroll
font size
0
reset
how to read this tab
guitar tuner
Autoscroll
slow
fast
+/-
esc
set tempo
stop
Help us to improve Ultimate-Guitar.com Take our survey!
×
Author
Finally a FULL accurate tab for this song. Ignore the note lengths, the amount of times
things (at the end) and the bars being gay, I exported it from Guitar Pro when I was
messing around the the time signatures and stuff. Towards the end I got a little lazy
just put the rhythm guitar parts. I might have mixed the lead and rhythm together 
there's 2 guitars going and it's really hard to distinguish between the two. But I thought I 
good. Enjoy. Oh, and please excuse any amounts of space that don't look right, UG 
is a pain in the ass to transfer to.

E||-------|----------10------------|------------------------|
B||-------|--7-------10-------5----|-----3----5-------------|
G||-------|--6----------------4----|-----2-------7----------|
D||-------|------------------------|----------------7-------|
A||-------|-------8--------3-------|--0---------------------|
E||-------|------------------------|------------------------|

|------------------5-----|---------------|
|--5-------3----------7--|---------------|
|--2-------2-------------|--6------------|
|-------0-------7--------|---------------|  x2
|------------------------|---------------|
|------------------------|---------------|


0:18


Play this twice clean


  PM PM PM PM PM PM PM PM PM PM PM PM    PM PM PM PM PM PM PM PM PM PM PM PM

|--------------------------------------|--------------------------------------|
|--------------------------------------|--------------------------------------|
|--------------------------------------|--------------------------------------|
|--------------7--7--------------7--7--|--------------7--7--------------7--7--|
|--5--5--8--8--------5--5--8--8--------|--5--5--8--8--------5--5--8--8--------|
|--------------------------------------|--------------------------------------|


  PM PM  PM PMPM PM PM PM  PM PMPM PM    PM PM PM PM PM PM PM PM PM PM PM PM

|--------------------------------------|--------------------------------------|
|--------------------------------------|--------------------------------------|
|--------------------------------------|--------------------------------------|
|--------------8--8--------------8--8--|--------------5--5--------------5--5--|
|--7--7--10-10-------7--7--10-10-------|--4--4--7--7--------4--4--7--7--------|
|--------------------------------------|--------------------------------------|


Then this with twice distortion

|--------------------------|--------------------------|
|--------------------------|--------------------------|
|--------------------------|--------------------------|
|----------7-7---------7-7-|----------7-7---------7-7-|
|--5-5-8-8-----5-5-8-8-----|--5-5-8-8-----5-5-8-8-----|
|--------------------------|--------------------------|

|------------------------------|--------------------------|
|------------------------------|--------------------------|
|------------------------------|--------------------------|
|------------8-8-----------8-8-|----------5-5---------5-5-|
|--7-7-10-10-----7-7-10-10-----|--4-4-7-7-----4-4-7-7-----|
|------------------------------|--------------------------|

  PM.............................................

|--------------------------------------------------|
|--------------------------------------------------|
|--------------------------------------------------|
|--7-----5-----------7-----5-----------7-----5-----|
|-----8-----7--8--5-----8-----7--8--5-----8-----7--|
|--------------------------------------------------|


  PM..............................................

|--------------------------------------------------|
|--------------------------------------------------|
|--------------------------------------------------|
|--7-----5-----------7-----5-----------7-----5-----|
|-----8-----7--8--5-----8-----7--8--5-----8-----7--|
|--------------------------------------------------|


  PM.........................................

|--------------------------------------------|
|--------------------------------------------|
|--------------------------------------------|
|--7-----5-----------7-----5-----------7-----|
|-----8-----7--8--5-----8-----7--8--5-----8--|
|--------------------------------------------|


   PM....................................

|-----------------------------------------|
|-----------------------------------------|
|-----------------------------------------|
|--5-----------7-----5-----7-----5--------|
|-----7--8--5-----8-----7-----8-----7--8--|
|-----------------------------------------|


0:53

  PM PM PM PM      PM PM PM PM

|-----------------------------------------|
|-----------------------------------------|
|-----------------------------------------|
|--------------8p-7-------------8p-7-8p-7-|
|--5--5--5--5-------5--5--5--5------------|
|-----------------------------------------|


  PM PM PM PM      PM PM PM PM
                                            |---3---|  |--3--| |--3-----------|
|-----------------------------------------|-----------------------------------|
|-----------------------------------------|-----------------------------------|
|-----------------------------------------|--5h7p--5--------------------------|
|--------------8p-7-------------8p7-8p7---|-----------8--7--8--7--------------|
|--5--5--5--5-------5--5--5--5------------|----------------------8--5~--------|
|-----------------------------------------|-----------------------------------|


  PM PM PM PM      PM PM PM PM

|-----------------------------------------|
|-----------------------------------------|
|-----------------------------------------|
|--------------8p-7-------------8p-7-8p-7-|
|--5--5--5--5-------5--5--5--5------------|
|-----------------------------------------|


  PM PM PM PM      PM PM PM PM
                                            |---3---|  |--3--| |--3-----------|
|-----------------------------------------|-----------------------------------|
|-----------------------------------------|-----------------------------------|
|-----------------------------------------|--5h7p--5--------------------------|
|--------------8p-7-------------8p7-8p7---|-----------8--7--8--7--------------|
|--5--5--5--5-------5--5--5--5------------|----------------------8--5~--------|
|-----------------------------------------|-----------------------------------|

|--------------------------|----------------------------|
|--------------------------|----------------------------|
|--------------------------|----------------------------|
|----------7-7---------7-7-|------------8-8---------5-5-|
|--5-5-8-8-----5-5-8-8-----|--7-7-10-10-----4-4-7-7-----|
|--------------------------|----------------------------|

|--------------------------|----------------------------|
|--------------------------|----------------------------|
|--------------------------|----------------------------|
|----------7-7---------7-7-|------------8-8---------5-5-|
|--5-5-8-8-----5-5-8-8-----|--7-7-10-10-----4-4-7-7-----|
|--------------------------|----------------------------|


1:10

Let all the notes ring except for the stacatto


|--------5--------5--|
|--6--------6--------|
|-----7--------7-----|
|--------------------|
|--------------------|
|--------------------|


|--------5--------5--|--6--------6--------|--5--------5--------|
|--5--------5--------|-----6--------6-----|-----5--------5-----|
|-----7--------7-----|--------3--------3--|--------------------|
|--------------------|--------------------|--------7--------7--|
|--------------------|--------------------|--------------------|
|--------------------|--------------------|--------------------|

|--------5--------5--|--.-------------5--|--6--------6--------|
|--6--------6--------|--5-------5--------|-----6--------6-----|
|-----7--------7-----|-------------7-----|--------3--------3--|
|--------------------|-------------------|--------------------|
|--------------------|-------------------|--------------------|
|--------------------|-------------------|--------------------|

|--5--------5--------|--------5--------5--|--------5--------5--|
|-----5--------5-----|--6--------6--------|--5--------5--------|
|--------------------|-----7--------7-----|-----7--------7-----|
|--------7--------7--|--------------------|--------------------|
|--------------------|--------------------|--------------------|
|--------------------|--------------------|--------------------|

|--6--------6--------|--5-------------5--|--------5--------5--|
|-----6--------6-----|--.-------5--------|--6--------6--------|
|--------3--------3--|-------------7-----|-----7--------7-----|
|--------------------|-------------------|--------------------|
|--------------------|-------------------|--------------------|
|--------------------|-------------------|--------------------|


                       PM PM PM PM
                                       |--3--|
|--------5--------5--|-------------------------------|
|--5--------5--------|----------------8-6h-8p-6------|
|-----7--------7-----|--------------7-----------7----|
|--------------------|--------5--8----------------7--|
|--------------------|-----5-------------------------|
|--------------------|--6----------------------------|


  PM PM PM PM PM PM PM PM PM PM PM

|-----------------------------------|
|-----------------------------------|
|-----------------------------------|
|--7--8--5--7-----5-----------------|
|--------------8-----7--8--5--7--4--|
|-----------------------------------|


1:39

       PM           PMPM             PMPM

|----------10----|------------------------------------|
|--7-------10----|------------------------------------|
|--6--------x----|--------------9p-7-------------9p-7-|
|--7----7---x----|--------10p-7------------10p-7------|
|-----------x----|-----8----------------8-------------|
|----------------|--10---------------10---------------|


   PMPM             PMPM                    PM

|------------------------------------|---------------|
|------------------------------------|--7-------3----|
|--------------9p-7-------------9p-7-|--6-------x----|
|--------10p-7------------10p-7------|--7----7--3----|
|-----8----------------8-------------|---------------|
|--10---------------10---------------|---------------|


   PMPM             PMPM                PMPM             PMPM

|------------------------------------|------------------------------------|
|------------------------------------|------------------------------------|
|--------------9p-7-------------9p-7-|--------------9p-7-------------9p-7-|
|--------10p-7------------10p-7------|--------10p-7------------10p-7------|
|-----8----------------8-------------|-----8----------------8-------------|
|--10---------------10---------------|--10---------------10---------------|


       PM           PMPM             PMPM

|----------10----|------------------------------------|
|--7-------10----|------------------------------------|
|--6--------x----|--------------9p-7-------------9p-7-|
|--7----7---x----|--------10p-7------------10p-7------|
|-----------x----|-----8----------------8-------------|
|----------------|--10---------------10---------------|


   PMPM             PMPM                    PM

|------------------------------------|------------------------|
|------------------------------------|--7-------3------5------|
|--------------9p-7-------------9p-7-|--6-------x------x------|
|--------10p-7------------10p-7------|--7----7--3------5------|
|-----8----------------8-------------|-----------------0------|
|--10---------------10---------------|------------------------|


  PM PM                   PM PM

|-----------------------|----------6-9-12-12------|-----------|
|--------------8-8------|--------6----------------|--14\------|
|------------7----------|-----6-------------------|--13\------|
|--------5-8------------|--8----------------------|-----------|
|-----5-----------------|-------------------------|-----------|
|--6--------------------|-------------------------|-----------|


Tremelo pick these palm muted

|--------||--------|
|--------||--------|
|--------||--------|
|--------||--------|
|--4--3--||--1--0--|
|--------||--------|

           PM.............
|---------------------------|
|---------------------------|
|---------------------------|
|-----4--5------------------|  x5
|--3--------1-1-1-1-0-0-0-0-|
|---------------------------|


  PM PM PM PM PM

|-----------------|
|-----------------|
|-----------------|
|--3--3--3--3--3--|
|--3--3--3--3--3--|
|--1--1--1--1--1--|


2:16

  PM PM          PM PM              PM PM           PM PM
|-----------8p-0-----------12p-0-|----------------------------------|
|--------------------------------|------------12p-0-----------10p-0-|
|--------9-------------12--------|----------------------------------|
|--7--7----------10-10-----------|--------12--------------10--------|   x2
|--------------------------------|--10-10-----------8--8------------|
|--------------------------------|----------------------------------|


                PM PM   PH
       |--3--|
|------------------------------------|------------------|
|--13--12-13-12-------<>10~----------|------------------|
|---------------14-12----------------|------------------|
|------------------------------14-12-|--14--------------|  x2
|------------------------------------|----------15------|
|------------------------------------|------------------|

|------------------------|----------------10-----10-----10-|
|------------------------|--7---7-x-x--x--10--x--10--x--10-|
|--------x-x---------x-x-|--6---6-x-x-(9)----(9)----(9)----|
|--7---7-x-x-10---10-x-x-|--4---4-x-x-(7)----(7)----(7)----|
|--7---7-x-x-10---10-x-x-|--------x-x--x------x------x-----|
|--5---5-x-x--8----8-x-x-|---------------------------------|


|----------------------|----------------10-----10-----10-|------------------|
|--5---5-x-x-3---3-x-x-|--7---7-x-x--x--10--x--10--x--10-|-5---5xx3---3-x-x-|
|--x---x-x-x-x---x-x-x-|--x---x-x-x-(9)----(9)----(9)----|-x---xxxx---x-x-x-|
|--5---5-x-x-3---3-x-x-|--7---7-x-x-(7)----(7)----(7)----|-5---5xx3---3-x-x-|
|--------x-x-------x-x-|--------x-x--x------x------x-----|------xx------x-x-|

|--------------------------------|---------------------------------------------|
|--------------------------------|---------------------------------------------|
|--------------------------------|---------------------------------------------|
|--7-----8------10------12-------|--12-------10------8------7------------------|
|----8-5---10-7----12-8----13-10-|-----13-10----12-8---10-7---8-5-2-1-2-4------|
|--------------------------------|---------------------------------------------|


                                      OUTRO!

2:49


Play this 4 times and the 4th time leave the last note out


|-----------------|-----------------|-----------------|-----2--------------|
|-------3----3----|-------3----3----|-------3----3----|--------5--3--------|
|-------4----4----|-------4----4----|-------4----4----|--------------4-----|
|-------x----x----|-------x----x----|-------x----x----|-----------------4--|
|--2----2----5----|--2----2----5----|--2----2----5----|--2-----------------|
|-----------------|-----------------|-----------------|--------------------|


                                  3:06


|-------2-----------|-----5-----------|-------2---------|----------------|
|-------------------|-----------------|------------5----|--3-------------|
|----------4--------|--------4--------|--4--------------|-------4--------|
|-------------------|-----------------|-----------------|----------------| x3
|-------------------|-----------------|-----------------|----------------|
|-------------------|-----------------|-----------------|----------------|

|-----2-----------|-----5-----------|-----------------|
|-----------------|-----------------|--5--------------|
|--------4--------|--------4--------|-----4--------L--|
|-----------------|-----------------|-----------------|
|-----------------|-----------------|-----------------|
|-----------------|-----------------|-----------------|


                                THESE ARE NOT IN ORDER


|-------------------|-------------------|-------------------|-------------------|
|--5--------5-------|--5--------5-------|--3--------3-------|--------5-----5----|
|-----6--------6----|-----7--------7----|-----4--------4----|-----4-----4-------|
|--------7----------|--------7----------|--------4----------|--4----------------|
|-------------------|-------------------|-------------------|-------------------|
|-------------------|-------------------|-------------------|-------------------|


                            Only rhythm guitar part, sorry.


|----------------|----------------|--------------------||
|--3------3------|--2------2------|--3--5-----0--2--3--||
|--2------2------|--x------x------|--------2-----------||
|----------------|--4------4------|--------------------||
|----------------|----------------|--------------------||
|----------------|----------------|--------------------||



Tablature Legend
----------------
L - tied note
x - dead note
(n) - ghost note
PH - pinch harmonic
h - hammer on
p - pull off
b - bend
/ -  slide into from below or out of upwards
\ -  slide into from above or out of downwards
~ - vibrato
Suggest correction
Give kudos to tab author, rate the tab!
1 2 3 4 5
comments
print report bad tab
2 comments total.
0 reply
YourMessiah666 577 wrote on April 3 2009, 06:14 pm

kick ass! you should definitely upload the guitar pro soon haha.
preferably guitar pro 4. please lol :]

0 reply
andrew12398 286 wrote on April 4 2009, 12:52 pm

Uh, do you mind if some of the time signatures are wrong? Being a mathcore band haha.

guest
You may want to rate the tab now too:
select rating
Please do not post tabs as comments. Select "correction" instead!