Oops, an error
Loading. Please wait.

Blue Dress Bass Tab

version 1
version 1

Whole song

Interactive

831 views 1 this week
no commentswrite comment
1 2 3 4 5
excellent!
x 1
add to favorites
launch autoscroll
font size
0
reset
guitar tuner
Tab Pro tools
  • play this tab
  • loop segment
  • change instrument
  • show fretboard
  • metronome
Autoscroll
slow
fast
+/-
esc
set tempo
stop
Contributor
Tuning
D A D G B E
----------------------------------------------------------------------------
                  The Number 12 Looks Like You - Blue Dress
----------------------------------------------------------------------------
Tuning - DADG
Tabbed by thedude22


G------------------------------------------------------------------------|
D-----------------6-6-6-6-6-6-6-6-6-------------------4-4-4-4-4-4-4-4-4-|
A-5-5-5-5-5-5-5-5-------------------3-3-3-3-3-3-3-3-3-------------------|
E-----------------------------------------------------------------------|

G ---------------------------------------------------------------|
D ---------------------------------------------------------------|
A -3-3--3-3-----------3-3--3-3-----------------------------------|
E -----------------------------0-0-0-0-0-0-0-0-0-0-0-0-0-0-0-0-0-|

G -----------------|
D -----------------| Play
A -----------------|  4x
E -0-0-0-0-0-0-0-0-|

G ---------------------------------------|
D ---------------------------------------| Play
A ---------------------------------------| 4x
E -0-0-0-0-0-0-0-3-3-3-3-2-2-2-2-1-1-1-1-|

G ----------------------------------|
D ----------------------------------| Play
A -0-0-0-0-0-0-0-0-0-0-0-0-0-0-0-0--|  2x
E ----------------------------------|

G --------------------         G ----------------------------|
D --------------------Play 2x  D ----------------------------|
A --------------------         A ----------------------------|
E -6-5-6-7-6-5-6-5-4--         E -0--0--0-0-0-0-0--0--0------|

G --------------------         G ----------------------------|
D --------------------Play 2x  D ----------------------------|
A --------------------         A ----------------------------|
E -6-5-6-7-6-5-6-5-4--         E -0--0--0-0-0-0-0--0--0------|


G --------------------|
D --------------------| Play
A --------------------|  2x
E -8\0-----8\0-0-0----|

G ---
D --- Play
A --- 22x
E -0-

G -----------------------------------|
D -----------------------------------|
A ------1-1-0-0-5-5-4-4-4-4-4-4-4-4--|
E –0-0-------------------------------|

G ---------------------|
D ---------------------| Play
A ---------------------|  3x
E –0----0----3----5----|

G ----------------------------------|
D ----------------------------------| Play
A -5-5-5-5-5-5-5-5-3-3-3-3-0-0-0-0--|  4x
E –---------------------------------|

G ------------------|
D ------------------|Play
A ------------------| 6x
E -0-0-0-0-0-0-0-0--|

G ---
D --- Play
A ---   3x
E -0-

G ----------------|
D ----------------|Play
A ----------------| 8x
E –1–0–6\1–0------|
comments
We did not receive enough feedback on this tab! Please rate:
print report bad tab
1 2 3 4 5
I want to post or [tab]
guest
You may want to rate the tab now too:
select rating
Please do not post tabs as comments. Select "correction" instead!