Oops, an error
Loading. Please wait.

Empty Calm intro tab

version 1
version 1

Intro

Whole song

Interactive

1,329 views 6 this week
4 commentsread comments
1 2 3 4 5
x 3
add to favorites
×
Save as Personal and add changes to this tab that will be seen only by you. Learn more ›
×
You can save this tab as Personal to edit and correct it or add notes. All changes will be seen only by you. Learn more »
launch autoscroll
font size
0
reset
how to read this tab
guitar tuner
edit
Autoscroll
slow
fast
+/-
esc
set tempo
stop
Author
Difficulty
intermediate
The Number Twelve Looks Like You
Empty Calm

this is all i can figure out.....it would be very awesome if sumone could help figure 
the rest becuz this is a great song and it needs to be tabbed


|-----------------------------------------1--------------------------|
|-----------1--------------1-----------------------------1-----------|
|----2--------2-----2--------2----2----------2----2--------2---------|
|--------------------------------------------------------------------|
|--------------------------------------------------------------------|
|--1----1-1------1-----1-1------1----1-1--------1----1-1------1-1----|

|------------------------------------------------------------------|
|---------------------------3-------------------------------3------|
|---5---4---2---2---5---4---4---2---5---4---2---2---5---4---4------|
|---7---5---3---3---7---5-------3---7---5---3---3---7---5----------|
|------------------------------------------------------------------|
|------------------------------------------------------------------|

|---------------7-------------9-------------7-------------9-----|
|---------5-------5-----5-------5-----5-------5-----5-------5---|
|--4/6--6---6-6-------6---6-6-------6---6-6-------6---6-6-------|
|---------------------------------------------------------------|
|---------------------------------------------------------------|
|---------------------------------------------------------------|
Suggest correction
Creating personal tab
Creating personal tab
You can edit any tab online and save it as your Personal.

You can edit, replace or remove any tab part or add personal notes – all changes will be seen only by you.

Personal tabs can be accessed anytime from any device, even offline.
Learn more »
Give kudos to tab author, rate the tab!
1 2 3 4 5
comments
print report bad tab
4 comments total. Showing first comments.
0 reply
enjoi_07 207 Dec 31, 2006 06:37 PM

i hope somebody tabs the rest, this song is sick and id love to learn it, by the way good start... id also figured this part out, although somewhat on accident haha. :P

0 reply
RaphiqueB 155 Jun 23, 2007 11:09 PM

to the guy above and anyone else someone else tabbed the whole song it just needs to be approved! sooo when you get the chance go to the accept or reject part and accept it! great tab by the way

0 reply
starlitskylines 36 Jun 05, 2008 09:57 AM

|------------------------------------------------------------------|
|---------------------------3-------------------------------3------|
|---5---4---2---2---5---4---4---2---5---4---2---2---5---4---4------|
|---7---5---3---3---7---5-------3---7---5---3---3---7---5----------|
|------------------------------------------------------------------|
|------------------------------------------------------------------|
i think on this part it sounds better if you do this:

---------------------------
-----------5---------------
---5---4---7---5---4----7--
---7---5-------7---5----9--
---------------------------
--------------------------- x2

guest
You may want to rate the tab now too:
select rating
Wanna post a correction for this tab? Suggest correction