Oops, an error
Loading. Please wait.

My Sharona The Knack tab

version 1
version 1

Whole song

7,400 views 1 this week
15 commentsread comments
1 2 3 4 5
x 8
add to favorites
×
Save as Personal and add changes to this tab that will be seen only by you. Learn more ›
×
You can save this tab as Personal to edit and correct it or add notes. All changes will be seen only by you. Learn more »
launch autoscroll
font size
0
reset
how to read this tab
guitar tuner
edit
Autoscroll
slow
fast
+/-
esc
set tempo
stop
Band:  The Number 12 Looks Like You
Song:  My Sharona
Tuning: D A D G B e
Tabbed By: Izzy (http://www.myspace.com/desperadoaintgotshyttonme)


Ahhh little pretty one, pretty one.
When you gonna give me some time, Sharona?
Ooh you make my motor run, motor run.
Gun it comin' off of the line Sharona

|-------------------------------------------------------|
|-------------------------------------------------------|
|-----------------------------------------5--3--5--3----|
|-----5-5---5---5-----5-5-----5-5---5-----5--3--5--3----|
|-----------------------------------------3--3--5--3----|
|-5-5-----5---5---5-5-----5-5-----5---------------------|

Never gonna stop, give it up.
Such a dirty mind. I always get it up for the touch
of the younger kind. My my my i yi woo. M M M My Sharona...


|------------------------------------------|
|------------------------------------------|
|------------------------------------------|
|-5---------8--------5-------8-------------|
|-5--x8-----8--x8----5--x2---8--x2---8-6-8-|
|-5---------8--------5-------8-------------|


woo. M M M My Sharona...
Come a little closer huh, ah will ya huh.
Close enough to look in my eyes, Sharona.
Keeping it in a mystery, it gets to me
Running down the length of my thighs, Sharona

|-------------------------------------------------------|
|-------------------------------------------------------|
|-----------------------------------------5--3--5--3----|
|-----5-5---5---5-----5-5-----5-5---5-----5--3--5--3----|
|-----------------------------------------3--3--5--3----|
|-5-5-----5---5---5-5-----5-5-----5---------------------|

Never gonna stop, give it up. Such a dirty mind.
always get it up for the touch
of the younger kind
My my my i yi

|------------------------------------------|
|------------------------------------------|
|------------------------------------------|
|-5---------8--------5-------8-------------|
|-5--x8-----8--x8----5--x2---8--x2---8-6-8-|
|-5---------8--------5-------8-------------|

M M M My Sharona...M M M My Sharona...My my my woo.. my my my woo...my my my...yeah

|-------------------------------------------------------|
|-------------------------------------------------------|
|-----------------------------------------5--3--5--3----|
|-----5-5---5---5-----5-5-----5-5---5-----5--3--5--3----|
|-----------------------------------------3--3--5--3----|
|-5-5-----5---5---5-5-----5-5-----5---------------------|

SOLO
Play this while lead guitar plays the solo

|----------------|
|----------------|
|--5~-5~---------|
|--5~-5~---------|
|--3~-3~---------|
|----------------|

|-----------------------------------------------------|
|-----------------------------------------------------|
|--5----4--4--2-2--2-2-4------------------------------|
|--5----4--4--2-2--2-2-4----repeat until solo is over-|
|--3----2--2--0-0--0-0-2------------------------------|
|-----------------------------------------------------|

Both guitars play this

|-0--------3-3--0-0-------0-------3-3--0-0------------|
|----3-3--------------3-----3-3-----------------------|
|-----------------------------------------------------| x2
|-----------------------------------------------------|
|-----------------------------------------------------|
|-----------------------------------------------------|
Woo. My Sharona...my my my my my my my my sharona
my my my my my sharona
my sharona
my sharona


|-------------------------------------------------------|
|-------------------------------------------------------|
|-----------------------------------------5--3--5--3----|
|-----5-5---5---5-----5-5-----5-5---5-----5--3--5--3----|
|-----------------------------------------3--3--5--3----|
|-5-5-----5---5---5-5-----5-5-----5---------------------|

            
            
Suggest correction
Creating personal tab
Creating personal tab
You can edit any tab online and save it as your Personal.

You can edit, replace or remove any tab part or add personal notes – all changes will be seen only by you.

Personal tabs can be accessed anytime from any device, even offline.
Learn more »
comments
print report bad tab
15 comments total. Showing first comments.
0 reply
hxcloverxx 51 Jul 03, 2006 01:12 PM

Sorry, This is what you're supposed to play while the the lead guitarist plays the solo.

e -----------------------------------------------------|
B -----------------------------------------------------|
G --5----4--4--2-2--2-2-4------------------------------|
D --5----4--4--2-2--2-2-4----repeat until solo is over-|
A --3----2--2--0-0--0-0-2------------------------------|
E -----------------------------------------------------|

0 reply
piggypoptart 10 Jul 14, 2006 11:37 PM

wow.

0 reply
fenderlover56 10 Aug 30, 2006 04:21 PM

perfect

guest
You may want to rate the tab now too:
select rating
Wanna post a correction for this tab? Suggest correction