Oops, an error
Loading. Please wait.

Sleeping With The Fishes See bass

707 views 1 this week
1 commentread comment
1 2 3 4 5
3 more votes to show rating
add to favorites
×
Save as Personal and add changes to this tab that will be seen only by you. Learn more ›
×
You can save this tab as Personal to edit and correct it or add notes. All changes will be seen only by you. Learn more »
launch autoscroll
font size
0
reset
guitar tuner
edit
Autoscroll
slow
fast
+/-
esc
set tempo
stop
Author
Sleeping with the Fishes, See?

by Christopher H. Russell-Walker


G |---------------------------|
D |-1-------------------------|
A |----------2----------------|
E |----3--3-----3--1--1--1----|
Main Riff--only difference each four timees is the rhythm on the F

G |---------------------                  ---------|
D |-3-----2-------------                  -3-----2-|
A |-2-----1-------------                  -2-----1-|
E |----3-----2--0--0--0-                  ----3----|
These two chords are held out while playing the G and F# on bottom...
respectively.

The fourth time (shown at right) slide that last chord up the neck.

Back to Main Riff.

G |---------------------------------------------------------------------|
D |---------------------------------------------------------------------|
A |----------2-----------------------------------2--------------7--7--7-|
E |-5--4--0-----1-----5--4--1--1--1-----5--4--0-----1-----5--4--0--0--0-|
First part....palm mute the F above....and the chord at the end

G |---------------------------------------------------------------------|
D |---------------------------------------------------------------------|
A |-5--4-----2--------5--4--------------5--4-----2--------------7--7--7-|
E |-5--4--0-----1-----5--4--1--1--1-----5--4--0-----1-----5--4--0--0--0-|
This is the heavier version
Stll palm mute the F and that last chord

Back to Main Riff

G |---------------------------------------------|
D |-------5--------5-----------4--------4-------|
A |----7--------7-----------------4--------4----|
E |-0--------0-----------------------5--------5-|

Part X

Let all these notes ring out as you play these chords

Play twice

G |---------------------------------------------|
D |----5-----------------------5----------------|
A |-7-----7--------5--------7-----7--------5----|
E |-------------7-----7-----------------7-----7-|
Play part X again.
Then repeat this part.

Back to Main Riff

G |---------------|
D |----5--------5-|
A |-7-----5--4----|
E |---------------|
Play once with guitar.
Then there is a rest.

G |------------------------|
D |------------------------|
A |-------------3--2--5----|
E |-5--4--5--------------3-|
I didn't write out the repetition on the A-G#-A....they are also palm
muted.
On last time through let the G ring out.

Play Main Riff one more time.

Then Read order of next few parts.

G |------------------------|
D |----4--------4--2-------|
A |-2-----4--5--------0--4-|
E |------------------------|
PART A

G |------------------------------------|
D |------------------------------------|
A |-2--------1--------2--------1-------|
E |----3--3-----2--2-----3--3-----2--2-|
PART B

G |------------|
D |------------|
A |------------|
E |-0--1--2--3-|
PART C

ORDER OF PARTS:
Part A twice Plam-Muted
Part A twice
REST
Part B
Part C
REST
Part A twice
Part B
Part A twice
Part B
Part C
REST
End on B (second fret on the A-string) Let it ring out

G |---------------------|
D |---------------------|
A |-3-------------------|
E |----3--x--1-/3--4--3-|
PART Z

Play 4 times
Rest
Play 4 times

G |---------------------|
D |----5--x--3-/5-h6--5-|
A |-3-------------------|
E |---------------------|
Play 3 times
Second time slide up on that last note

G |---------------------|
D |----5----------------|
A |-3-------------------|
E |-------x--1-/3--4--3-|
Play once

REST

Play PART Z
4 times
Then 4 more but the notes as 16ths (faster) with the double bass

G |---------------------                                                ---|
D |-5--5----------------                                                ---|
A |-3--3----------------                                                ---|
E |----3--x--1-/3--4--3-                                                ---|
Let the first chord ring into the second.

LAST RIFFFFFFF!!!!!!!!!!

Play four times!

            
            
Suggest correction
Creating personal tab
Creating personal tab
You can edit any tab online and save it as your Personal.

You can edit, replace or remove any tab part or add personal notes – all changes will be seen only by you.

Personal tabs can be accessed anytime from any device, even offline.
Learn more »
Give kudos to tab author, rate the tab!
1 2 3 4 5
comments
print report bad tab
1 comment total.
0 reply
xConverge 30 Feb 19, 2008 07:52 AM

it is SO super ****ing cool that you actually give tabs for your songs
i dont play bass very well... so cant comment on the tab though, :3

guest
You may want to rate the tab now too:
select rating
Wanna post a correction for this tab? Suggest correction