Oops, an error
Loading. Please wait.

What Makes A Friend tab

16 views 6 this week
no commentswrite comment
1 2 3 4 5
3 more votes to show rating
add to favorites
×
Save as Personal and add changes to this tab that will be seen only by you. Learn more ›
×
You can save this tab as Personal to edit and correct it or add notes. All changes will be seen only by you. Learn more »
launch autoscroll
font size
0
reset
how to read this tab
guitar tuner
edit
Autoscroll
slow
fast
+/-
esc
set tempo
stop
Artist: The Obsessives
Song: What Makes A Friend
Album: Heck No, Nancy

i learned this from the acoustic video nick did (https://www.youtube.com/watch?v=LO05J5f7g0Q) but its the same
as the album vresion. 
this is my first tab, but im pretty sure its pretty spot on.  
its in open d (DADF#AD) ppl say they tune to DAEAC#E but ig not. so yeah, have fun let me know if i missed 
anything or if u have a correction. :)

[Verse]
(repeat until the chorus)

e|---------------------------------------------------------------------------|
B|-----------------------------------0-----------0---------------------------|
G|-----------------------------------------0---------------------------------|
D|---0-------0-----0-----0-----0---------------------------------------------|  x3
A|-2---2-2p0---0-4---4-4---4-5---5-5---5-5---5-5---5-------------------------|
E|-4---4-4p0---0-2---2-2---2-5---5-5---5-5---5-5---5-------------------------|
 
(the strumming pattern on the 7th fret chord is D D DU for each time the chord is listed except the last
where the upstrum is replaced by the in between chord and the 5th fret chord is sustainrd until it starts up 
again. i dont rly know how many of the string should be played open but just do all of them bc why not)

e|-0-0-0-0---0---------------------------------------------------------------|
B|-0-0-0-0---0---------------------------------------------------------------|
G|-0-0-0-0---0---------------------------------------------------------------|
D|-0-0-0-0---0---------------------------------------------------------------|  x2
A|-7-7-7-7-5-5---------------------------------------------------------------|
E|-7-7-7-7-4-5---------------------------------------------------------------|

[Verse]
e|---------------------------------------------------------------------------|
B|-----------------------------------0-----------0---------------------------|
G|-----------------------------------------0---------------------------------|
D|---0-------0-----0-----0-----0---------------------------------------------|  x2
A|-2---2-2p0---0-4---4-4---4-5---5-5---5-5---5-5---5-------------------------|
E|-4---4-4p0---0-2---2-2---2-5---5-5---5-5---5-5---5-------------------------|

(instead of playing the last chord of the chorus you go into this nice, fun breakdown thingy and play it 
until the end. first run through play the chords short, when it picks up u play it all open for maximum 
catharsis)

e|-0-0-0-0---0---------------------------------------------------------------|
B|-0-0-0-0---0---------------------------------------------------------------|
G|-0-0-0-0---0---------------------------------------------------------------|
D|-0-0-0-0---0---------------------------------------------------------------|  x2
A|-7-7-7-7-5-5---------------------------------------------------------------|
E|-7-7-7-7-4-5---------------------------------------------------------------|

[Breakdown]
e|---------------------------------------------------------------------------|
B|--------------------------------------------------12-----------------------|
G|-5-5-5p0-3-3-3p0-5-5-5p0-3-3-3p0-8-8-8--7-7-7--12-12-12--------------------|
D|-0-0-0---0-0-0---0-0-0---0-0-0---0-0-0--0-0-0---0--0-11--------------------|  x6
A|-x-x-x---x-x-x---x-x-x---x-x-x---x-x-x--x-x-x---x--x--x--------------------|
E|-5-5-5---5-5-5---5-5-5---5-5-5---9-9-9--7-7-7--12-12-12--------------------|

that should be it hope it helps whoever sees this out. i hope none of my essays confused anyone. 
thx for checking it out!


************************************

| x   Dead note
| p   Pull-off


************************************
Suggest correction
Creating personal tab
Creating personal tab
You can edit any tab online and save it as your Personal.

You can edit, replace or remove any tab part or add personal notes – all changes will be seen only by you.

Personal tabs can be accessed anytime from any device, even offline.
Learn more »
Give kudos to tab author, rate the tab!
1 2 3 4 5
comments
print report bad tab
guest
You may want to rate the tab now too:
select rating
Wanna post a correction for this tab? Suggest correction