Oops, an error
Loading. Please wait.

It Makes No Difference chords

46 views 1 this week
no commentswrite comment
1 2 3 4 5
3 more votes to show rating
add to favorites
×
Save as Personal and add changes to this tab that will be seen only by you. Learn more ›
×
You can save this tab as Personal to edit and correct it or add notes. All changes will be seen only by you. Learn more »
launch autoscroll
font size
0
reset
transpose
0
reset
display chords
guitar tuner
edit
Autoscroll
slow
fast
+/-
esc
set tempo
stop
Strumming
There is no strumming pattern for this song yet. and get +5 IQ
Artist: The Odd Numbers

Song: It Makes No Difference

Album: About Time (1990)


[intro] 

A   D  A  (x2)


[verse]

A    
I've seen you up and I've seen you down 

I keep on thinking about the times that I've seen you
    D                                    A     D  A
But somehow it makes no difference in my life

A
It seems so pretty so in love with something

I sometimes wonder if I might be part 
           D                                      A    D  A
But then I just stop thinking like I'm still seventeen


[bridge]

D                                   
All things that I know about you are 
B                                  E
all the things I'm not supposed to know

A  D  A  (x2)


[chorus]

  C#m             G                D                                     E
  But it makes no difference to me I don't mind cause I've got things to do
e----------------------------------------------------------------------------------
b-2--------------------------5-----7------------------10-------10--------12-------12
g-----------------------------------------------------------------------------------
d-----------------------------------------------------------------------------------
a-----------------------------------------------------------------------------------
e-----------------------------------------------------------------------------------
(tab repeat all chorus)

A  D  A  (x2)


[verse 2]

A
Hello baby I'm back again

You're looking well and I'm glad to say that
D                             A    D  A
I just like to tell you how I feel

A
Gone home I set my own commitments

But if you think it doesn't make much difference
D                           A    D  A
I could only tell you how I feel


[bridge 2]

D
All the times that I thought I'd known you
    B                                 E   
I'd never thought I'd have you for my own

A  D  A  (x2)


[chorus 2]

C#m             G
But it makes no difference to me 
D                                     E     
I don't mind cause I've got things to do

A  D  A  (x2)


[solo]

A  D  A  (x4)

e-----------------------------5--------------
b--5-4-----------5--5-5--8--8----------------
g------7-5---5-5-----------------7-b9-7-5----
d-----------------------------------------7--
a--------------------------------------------
e--------------------------------------------

e--2-3-5--2-3-5--2-3-s5-5-5-5-5-5---3-p5-3--2-p3-2--0-p2-0--------------------
b-----------------------------------------------------------3-p5-3--2-p3-2-0--
g----------------------------------------------------------------------------2
d-----------------------------------------------------------------------------
a-----------------------------------------------------------------------------
e-----------------------------------------------------------------------------

[bridge 3]

D                                   
All things that I know about you are 
B                                  E
all the things I'm not supposed to know

A  D  A  (x2)


[chorus 3]

C#m             G
But it makes no difference to me 
D                                     E     
I don't mind cause I've got things to do

A  D  A  (x5)

end solo in Am pentatonic


 









            
            
Suggest correction
Creating personal tab
Creating personal tab
You can edit any tab online and save it as your Personal.

You can edit, replace or remove any tab part or add personal notes – all changes will be seen only by you.

Personal tabs can be accessed anytime from any device, even offline.
Learn more »
Give kudos to tab author, rate the tab!
1 2 3 4 5
comments
print report bad tab
guest
You may want to rate the tab now too:
select rating
Wanna post a correction for this tab? Suggest correction