Oops, an error
Loading. Please wait.

80 Times Bass Tab

278 views 1 this week
no commentswrite comment
1 2 3 4 5
please rate
add to favorites
launch autoscroll
font size
0
reset
guitar tuner
Tab Pro tools
  • play this tab
  • loop segment
  • change instrument
  • show fretboard
  • metronome
×
Best way to learn
"80 Times"
Autoscroll
slow
fast
+/-
esc
set tempo
stop
Contributor
+++++++++++++++++++++++++++
| The Offspring- 80 Times |
+++++++++++++++++++++++++++


"Help help..."


Tuning: EADG


Intro
1.
G|-------------------------------------------------|
D|-5~----3~----5~----3~----5~----3~----5~----3~----|
A|-------------------------------------------------|
E|-------------------------------------------------|

Verse
"80 times was all it took for him..."
2.
G|-------------------------------------------------------------------------|
D|-55555555-55778855-33333333-33556633-55555555-55778855-33333333-33556633-|
A|-------------------------------------------------------------------------|--x4
E|-------------------------------------------------------------------------|

Chorus
"Help help..."
3.
G|-------------------------------------------------------------------------|
D|-------------------------------------------------------------------------|
A|-0-00000-3-3333333-0-00000-5-5-3-2---0-00000-3-3333333-5-555555-55555555-|
E|-----------------------------------3-------------------------------------|

Outro
4.
G|-------------------------------------------------|
D|-5~----3~----5~----3~----5~----3~----5~----3~----|
A|-------------------------------------------------|
E|-------------------------------------------------|

Verse
"80 times was all it took for him..."
5.
G|-------------------------------------------------------------------------|
D|-55555555-55778855-33333333-33556633-55555555-55778855-33333333-33556633-|
A|-------------------------------------------------------------------------|--x4
E|-------------------------------------------------------------------------|

Chorus
"Help help..."
6.
G|-------------------------------------------------------------------------------------------|
D|-------------------------------------------------------------------------------------------|
A|-0-00000-3-3333333-0-00000-5-5-3-2---0-00000-3-3333333-5-555555-5555-7---5-555555-5555-7---|
E|-----------------------------------3-----------------------------------5-----------------5-|

7.
G|-------------------------------------------------------|
D|-------------------------------------------------------|
A|-5-555555-5555-7---5-555555-5555-7---5-555555-5555-7---|
E|-----------------5-----------------5-----------------5-|

Chorus
"Help help..."
8.
G|-------------------------------------------------------------------------|
D|-------------------------------------------------------------------------|
A|-0-00000-3-3333333-0-00000-5-5-3-2---0-00000-3-3333333-5-555555-55555555-|
E|-----------------------------------3-------------------------------------|

Outro
9.
G|-------------------------------------------------|
D|-5~----3~----5~----3~----5~----3~----5~----3~----|
A|-------------------------------------------------|
E|-------------------------------------------------|


Please rate thanks!!


Lyrics:

80 times was all it took for him he has no more tries
No one seems to care too much for him
You can see it in his eyes

Drive down the street that he's on
Don't look his way
You keep going on and on and on
But you can't hear him say

Help Help
Help Me



+++++++++++++++++++++++++++++++++
| Raileff                       |
| Underground__Dora@Hotmail.Com |
+++++++++++++++++++++++++++++++++
comments
We did not receive enough feedback on this tab! Please rate:
print report bad tab
1 2 3 4 5
I want to post or [tab]
guest
You may want to rate the tab now too:
select rating
Please do not post tabs as comments. Select "correction" instead!