Oops, an error
Loading. Please wait.

All I Have Left Is You Tab

version 2
version 2

Whole song

1,528 views 3 this week
2 commentsread comments
1 2 3 4 5
excellent!
x 6
add to favorites
launch autoscroll
font size
0
reset
how to read this tab
guitar tuner
Tab Pro tools
  • play this tab
  • loop segment
  • change instrument
  • show fretboard
  • metronome
×
Best way to learn
"All I Have Left Is You"
Autoscroll
slow
fast
+/-
esc
set tempo
stop
Contributor
Difficulty
novice
Guitar 1=G1
Guitar 2=G2

intro
piano+drums+bass

verse 1
G1: clean with chorus
E|----------------------------------------|
B|----8--8/11-9--9-8---8------9-8----8----|
G|-8-8-8------------10---8--8-----10---8--|
D|--8-------------------------------------|
A|----------------------------------------|
E|----------------------------------------|

E|--------------------------------------|x2
B|--------------------------------------|
G|-88888888----------6666-----88888888--|
D|-88888888-66666666-66666666-88888888--|
A|-66666666-66666666-44446666-66666666--|
E|----------44444444-----4444-----------|
   ******** ******** ******** ********
chorus
G1+G2: distorsion
E|--------------------------------------|x2
B|--------------------------------------|
G|-88888888----------6666-----88888888--|
D|-88888888-66666666-66666666-88888888--|
A|-66666666-66666666-44446666-66666666--|
E|----------44444444-----4444-----------|

verse 2
G1: clean with chorus
E|-------------------------------------------| 
B|----8----------9--9-8---8------9-8----8----| 
G|-8-8-8-8/10-8--------10---8--8-----10---8--| 
D|--8----------------------------------------|
A|-------------------------------------------|
E|-------------------------------------------|

G2: clean with chorus
E|--------------------------------------|
B|--------------------------------------|
G|-88888888----------6666-----88888888--|
D|-88888888-66666666-66666666-88888888--|
A|-66666666-66666666-44446666-66666666--|
E|----------44444444-----4444-----------|
   ******** ******** ******** ********

G1: clean with chorus
E|--------------------------------------|x2
B|-8~----------------6~-------8~--------|
G|-8~-------5~-------6~--5~---8~--------|
D|-8~-------6~-------6~--6~---8~--------|
A|-6~-------6~-------4~--6~---6~--------|
E|----------4~-----------4~-------------|

G2: clean with chorus
E|--------------------------------------|x2
B|--------------------------------------|
G|-88888888----------6666-----88888888--|
D|-88888888-66666666-66666666-88888888--|
A|-66666666-66666666-44446666-66666666--|
E|----------44444444-----4444-----------|
   ******** ******** ******** ********

chorus
G1+G2: distorsion
E|--------------------------------------|x4
B|--------------------------------------|
G|-88888888----------6666-----88888888--|
D|-88888888-66666666-66666666-88888888--|
A|-66666666-66666666-44446666-66666666--|
E|----------44444444-----4444-----------|

solo
G1: distorsion
E|----------------------------------------------------------------------------------|
B|----------------------------------------------------------------------------------|
G|----------------------------------------------------------------------------------|
D|-8/13-13-13-13-13-13-13-13\8-8-8/10-10-10-10-10-10-10-10\8-8-8-8-8-8-8/13-13-12\8-|
A|----------------------------------------------------------------------------------|
E|----------------------------------------------------------------------------------|

E|----------------------------------------------------------------------------------|
B|----------------------------------------------------------------------------------|
G|----------------------------------------------------------------------------------|
D|-8/13-13-13-13-13-13-13-13\8-8-8/10-10-10-10-10-10-10-10\8-8-8-8-8-8-8------------|
A|-----------------------------------------------------------------------13-11-10---|
E|--------------------------------------------------------------------------------11|

G2: distorsion
E|-----------------------------------||-----------------------------------|
B|-----------------------------------||-----------------------------------|
G|-55555555--------88888888----------||-55555555--------8888888888888888--|
D|-55555555666666668888888888888888--||-55555555666666668888888888888888--|
A|-33333333666666666666666688888888--||-33333333666666666666666666666666--|
E|---------44444444--------66666666--||---------44444444------------------|

Bridge
G1: distorsion
E|---------------------------------------|
B|---------------------------------------|
G|---------------------------------------|
D|--------------------------8-13-12-10---|
A|-3~------------------------------------|
E|---------------------------------------|

G2: clean with chorus
E|-----------------------------------||-----------------------------------|
B|-----------------------------------||-----------------------------------|
G|-55555555--------88888888----------||-55555555--------------------------|
D|-55555555666666668888888888888888--||-55555555666666668888888888888888--|
A|-33333333666666666666666688888888--||-33333333666666668888888888888888--|
E|---------44444444--------66666666--||---------444444446666666666666666--|
   ********************************     ********************

G1+G2: clean with chorus
E|--------------------------------------|x2
B|--------------------------------------|
G|-88888888----------6666-----88888888--|
D|-88888888-66666666-66666666-88888888--|
A|-66666666-66666666-44446666-66666666--|
E|----------44444444-----4444-----------|

chorus
G1+G2: distorsion
E|--------------------------------------|x5
B|--------------------------------------|
G|-88888888----------6666-----88888888--|
D|-88888888-66666666-66666666-88888888--|
A|-66666666-66666666-44446666-66666666--|
E|----------44444444-----4444-----------|

Outro
G2: distorsion
E|------------------|x2|------------------|x2
B|------------------|  |------------------|
G|------------------|  |------------------|
D|-------6----6-----|  |-------6----6-----|
A|---------------6--|  |---------------6--|
E|-6-8-9---9-8--8---|  |-6-8-9---9-8--8---|

G1: clean with chorus
E|-------------------------------------------| 
B|----8----------9--9-8---8------9-8----8----| 
G|-8-8-8-8/10-8--------10---8--8-----10---8--| 
D|--8----------------------------------------|
A|-------------------------------------------|
E|-------------------------------------------|


reapeat G1 and G2 and that it!

It is my first tab
so if there are mistakes please send me an e-mail at superbb98@gmail.com
and rate please!!
comments
print report bad tab
2 comments total.
0 reply
a7xrocker201 wrote on April 30 2014, 03:45 pm

Spot on tab! Thanks for posting it, the other guy's tab sucked.

0 reply
boehm.patrick89 wrote on March 15 2016, 02:41 pm

Thats a really good tab, with two mistakes, on the solo you can the last 13 delete, because its the same tone and the secound is on the bridge.
D---8~-13-12-8-

I want to post or [tab]
guest
You may want to rate the tab now too:
select rating
Please do not post tabs as comments. Select "correction" instead!