Oops, an error
Loading. Please wait.

All I Want Bass Tab

version 1
version 1

Live

Whole song

378 views 1 this week
no commentswrite comment
1 2 3 4 5
please rate
add to favorites
launch autoscroll
font size
0
reset
guitar tuner
Tab Pro tools
  • play this tab
  • loop segment
  • change instrument
  • show fretboard
  • metronome
×
Best way to learn
"All I Want"
Autoscroll
slow
fast
+/-
esc
set tempo
stop
Contributor
+++++++++++++++++++++++++++++
| The Offspring- All I Want |
+++++++++++++++++++++++++++++
This is the live version from the Happy Hour CD!

Tuning: EADG

"Ok
Ya ya ya ya ya..."

Intro
1.
G|------------------------------------11---|
D|-333-1333-1-----111-1333-1333-1-------11-|
A|-----------444-4---------------444-4-----|
E|-----------------------------------------| 

Verse
"Day after day..."
2.
G|-------------------------------------11----------------------------------------11---|
D|-33-1-3~---------1111-33-1-3~----------11-33-1-3~---------1111-33-1-3~-----------11-|
A|------------4444-----------------44-4----------------4444-----------------44-4------|
E|------------------------------------------------------------------------------------|

Pre-Chorus
"So back of your rules..."
3.
G|-----------------------------------------------------------------|
D|-33333-1-----------------11111-1-33333-1-----------------11111-1-|
A|---------44444-1-------4-----------------44444-1-------4---------|
E|-----------------44444---------------------------44444-----------|

Chorus
"Its all I want..."
4.
G|-----------------------------------------------------------------|
D|-33333-1-----------------11111-1-33333-1-----------------11111-1-|
A|---------44444-1-------4-----------------44444-1-------4---------|
E|-----------------44444---------------------------44444-----------|

Outro
5.
G|------------------------------------11---|
D|-333-1333-1-----111-1333-1333-1-------11-|
A|-----------444-4---------------444-4-----|
E|-----------------------------------------| 

Verse
"How many times..."
6.
G|-------------------------------------11----------------------------------------11---|
D|-33-1-3~---------1111-33-1-3~----------11-33-1-3~---------1111-33-1-3~-----------11-|
A|------------4444-----------------44-4----------------4444-----------------44-4------|
E|------------------------------------------------------------------------------------|

Pre-Chorus
"So back of your rules..."
7.
G|-----------------------------------------------------------------|
D|-33333-1-----------------11111-1-33333-1-----------------11111-1-|
A|---------44444-1-------4-----------------44444-1-------4---------|
E|-----------------44444---------------------------44444-----------|

Chorus
"Its all I want..."
8.
G|-----------------------------------------------------------------|
D|-33333-1-----------------11111-1-33333-1-----------------11111-1-|
A|---------44444-1-------4-----------------44444-1-------4---------|
E|-----------------44444---------------------------44444-----------|

Bridge
"I said it before..."
9.
G|-----------------------------------------------------------------------|
D|------1x----33-3-1x---------11-----------------------------------------|
A|-44-4------------------44-4----44444444-444444444-44444444-33-11-------|
E|-----------------------------------------------------------------44-33-|

Pre-Chorus
"So back of your rules..."
10.
G|-----------------------------------------------------------------|
D|-33333-1-----------------11111-1-33333-1-----------------11111-1-|
A|---------44444-1-------4-----------------44444-1-------4---------|
E|-----------------44444---------------------------44444-----------|

Chorus
"Its all I want..."
11.
G|---------------------------------------------------------------------|
D|-33333-1-------1-33333-1-------1-33333-1-----------------11-1-1-1-3x-|
A|---------44444-----------44444-----------44444-1-------4-------------|
E|-------------------------------------------------44444---------------|

Lyrics:

Day after day your home life's a wreck The powers that be just
Breathe down your neck
You get no respect You get no relief
You gotta speak up
And yell out your peace

So back off your rules
Back off your jive
Cause I'm sick of not living To stay alive
Leave me alone, I'm not asking a lot
I just don't want to be controlled

That's all I want
All I want

How many times is it gonna take
Till someone around you hears what you say
You've tried being cool, You feel like a lie
You've played by their rules Now it's their turn to try

I said it before
I'll say it again
If you could just listen
Then it might make sense

+++++++++++++++++++++++++++++++++
| RaiLeff                       |
| Underground__Dora@Hotmail.Com |
+++++++++++++++++++++++++++++++++
comments
We did not receive enough feedback on this tab! Please rate:
print report bad tab
1 2 3 4 5
I want to post or [tab]
guest
You may want to rate the tab now too:
select rating
Please do not post tabs as comments. Select "correction" instead!