Oops, an error
Loading. Please wait.

All I Want Bass Tab

version 2
version 2

Whole song

2,557 views 3 this week
no commentswrite comment
1 2 3 4 5
excellent!
x 3
add to favorites
launch autoscroll
font size
0
reset
guitar tuner
Tab Pro tools
  • play this tab
  • loop segment
  • change instrument
  • show fretboard
  • metronome
×
Best way to learn
"All I Want"
Autoscroll
slow
fast
+/-
esc
set tempo
stop
Contributor
This is a fun and awesome song to play, so please enjoy “All I Want.”
Zach Hammer

The Offspring:
All I Want
Intro-Verse
G:----------------------------------------------------------------------------|
D:-----------------------------------------------------7----------------------|
A:---9-9-7-9-9—-—5-5-5-7-7-7--9-9-7-9-9---5-5-5-5---7-------------------------|
E:----------------------------------------------------------------------------|

Chorus:
G:----------------------------------------------------------------------------|
D:--(With Guitar)------(Bass Only)----(Bass)-------------------(7)------------|
A:--4-4-2-4-4----------5-5-5—--7-7----4-4-2-4-4----------5-5-5-12--7----------|
E:----------------------------------------------------------------------------|

Bridge:
G:----------------------------------------------------------------------------|
D:-------------------------7-7-7-7-7------------------------------------------|
A:--9-9-9-9-9---5-5-5-5-5------------7-7-7-7-7—(Then to Intro/Verse)----------|
E:----------------------------------------------------------------------------|

(I’ll say it again…)-Ending
G:-----------------|---------------------------------------------------------|
D:---------9-9-9-7-|---------------------------------------------------------|
A:-5-5-5-7---------|-5-5-5-5-5-7-7-7-7-9(13x)-7(7x)--------------------------|
E: --------------------------------------------------------------------------|

And if you wanna be fancy:
Bridge(Other Way):
G:----------------------------------------------------------------------------|
D:----------------------------------------------------------------------------|
A:--9-9-9-9-9---5-5-5-5-5-12-12-12-12-12-7-7-7-7-7—(Then to Intro/Verse)------|
E:----------------------------------------------------------------------------|

comments
We did not receive enough feedback on this tab! Please rate:
print report bad tab
1 2 3 4 5
I want to post or [tab]
guest
You may want to rate the tab now too:
select rating
Please do not post tabs as comments. Select "correction" instead!