Oops, an error
Loading. Please wait.

All I Want Tab

version 3
version 3
22,169 views 21 this week
2 commentsread comments
1 2 3 4 5
accurate
x 3
add to favorites
launch autoscroll
font size
0
reset
how to read this tab
guitar tuner
Tab Pro tools
  • play this tab
  • loop segment
  • change instrument
  • show fretboard
  • metronome
×
Best way to learn
"All I Want"
Autoscroll
slow
fast
+/-
esc
set tempo
stop
Contributor
|---------------------------------------------------------------------------|
|------------------------------- OFFSPRING ---------------------------------|
|---------------------------------------------------------------------------|

song: all i want
band: offspring
album: ixnay on the hombree, columbia records 1997

Intro

yeah yeah yeah yeah

e|--------------------------|
B|--------------------------|
G|--1111-9-1111-11-777-999--|
D|--1111-9-1111-11-777-999--|
A|---9-9-7--9-9--9-555-777--|
E|--------------------------|

e|--------------------------|
B|--------------------------|
G|--1111-9-1111-11-777-14-9-|
D|--1111-9-1111-11-777-14-9-|
A|---9-9-7--9-9--9-555-12-7-|
E|--------------------------|

Verse

e|-----------------------------|
B|-----------------------------|
G|--------------------777-14-9-|
D|--44-2-4-----44-2-4-777-14-9-|  2X
A|--44-2-4-----44-2-4-555-12-7-|
E|--22-0-2-----22-0-2----------|

BRIDGE

e|-------------------------------|
B|-------------------------------|
G|--1111111111-77777-------99999-|
D|--1111111111-77777-77777-99999-| 2X
A|---9-9-9-9-9-55555-77777-77777-|
E|-------------------55555-------|

CHORUS

THE CHORUS IS JUST LIKE THE BRIDGE

BRIDGE (LIKE THE INTRO)

I DONT KNOW WHAT TO CALL THIS PART SO I CALL IT "THE SLOW PART"
e|--------------------------------------------|
B|--------------------------------------------|
G|--777-9-111111-9-777-9999-77777777-66666666-|
D|--777-9-111111-9-777-9999-77777777-66666666-|
A|--555-7--9-9-9-7-555-7777-55555555-44444444-|
E|--------------------------------------------|

THE SONG GOES LIKE THIS

INTRO
VERSE
BRIDGE
CHORUS
BRIDGE(INTRO)
VERSE
BRIDGE
CHORUS 
"THE SLOW PART"
BRIDGE
CHORUS

Thats it!! hope you like it!!
comments
We did not receive enough feedback on this tab! Please rate:
print report bad tab
1 2 3 4 5
2 comments total.
0 reply
ygokazuki wrote on May 13 2005, 12:00 am

Poorly written - put space between notes.

0 reply
ygokazuki wrote on July 20 2005, 12:00 am

Also, in the verse, it's
E-----------------|
B-----------------|
G-----------------|
D---4-4-4-4--4--4-|
A---4-4-4-4--4--4-|
E---2-2-2-2--0--2-|.

Good, otherwise!

I want to post or [tab]
guest
You may want to rate the tab now too:
select rating
Please do not post tabs as comments. Select "correction" instead!