Oops, an error
Loading. Please wait.
We have an official All I Want tab made by UG professional guitarists. Check out the tab »
×
24,954 views 36 this week
2 commentsread comments
1 2 3 4 5
x 3
add to favorites
×
Save as Personal and add changes to this tab that will be seen only by you. Learn more ›
×
You can save this tab as Personal to edit and correct it or add notes. All changes will be seen only by you. Learn more »
save as personal
new!
launch autoscroll
font size
0
reset
how to read this tab
guitar tuner
backing track
0:00
0:00
Autoscroll
slow
fast
+/-
esc
set tempo
stop
Author
|---------------------------------------------------------------------------|
|------------------------------- OFFSPRING ---------------------------------|
|---------------------------------------------------------------------------|

song: all i want
band: offspring
album: ixnay on the hombree, columbia records 1997

[Intro]

yeah yeah yeah yeah

e|--------------------------|
B|--------------------------|
G|--1111-9-1111-11-777-999--|
D|--1111-9-1111-11-777-999--|
A|---9-9-7--9-9--9-555-777--|
E|--------------------------|

e|--------------------------|
B|--------------------------|
G|--1111-9-1111-11-777-14-9-|
D|--1111-9-1111-11-777-14-9-|
A|---9-9-7--9-9--9-555-12-7-|
E|--------------------------|

[Verse]

e|-----------------------------|
B|-----------------------------|
G|--------------------777-14-9-|
D|--44-2-4-----44-2-4-777-14-9-|
A|--44-2-4-----44-2-4-555-12-7-|
E|--22-0-2-----22-0-2----------|(x2)

[Bridge]

e|-------------------------------|
B|-------------------------------|
G|--1111111111-77777-------99999-|
D|--1111111111-77777-77777-99999-|
A|---9-9-9-9-9-55555-77777-77777-|
E|-------------------55555-------|(x2)

[Chorus]

THE CHORUS IS JUST LIKE THE BRIDGE

BRIDGE (LIKE THE INTRO)

I DONT KNOW WHAT TO CALL THIS PART SO I CALL IT "THE SLOW PART"
e|--------------------------------------------|
B|--------------------------------------------|
G|--777-9-111111-9-777-9999-77777777-66666666-|
D|--777-9-111111-9-777-9999-77777777-66666666-|
A|--555-7--9-9-9-7-555-7777-55555555-44444444-|
E|--------------------------------------------|

THE SONG GOES LIKE THIS

[Intro]
[Verse]
[Bridge]
[Chorus]
[Bridge] (Intro)
[Verse]
[Bridge]
[Chorus]
[The slow part]
[Bridge]
[Chorus]
Suggest correction
Give kudos to tab author, rate the tab!
1 2 3 4 5
comments
print report bad tab
2 comments total.
0 reply
ygokazuki 343 May 12, 2005 08:00 PM

Poorly written - put space between notes.

0 reply
ygokazuki 343 Jul 19, 2005 08:00 PM

Also, in the verse, it's
E-----------------|
B-----------------|
G-----------------|
D---4-4-4-4--4--4-|
A---4-4-4-4--4--4-|
E---2-2-2-2--0--2-|.

Good, otherwise!

guest
You may want to rate the tab now too:
select rating
Wanna post a correction for this tab? Suggest correction