Oops, an error
Loading. Please wait.

Amazed Tab

version 2
version 2

Whole song

Interactive

2,159 views 1 this week
no commentswrite comment
1 2 3 4 5
excellent!
x 3
add to favorites
launch autoscroll
font size
0
reset
how to read this tab
guitar tuner
Tab Pro tools
  • play this tab
  • loop segment
  • change instrument
  • show fretboard
  • metronome
×
Best way to learn
"Amazed"
Autoscroll
slow
fast
+/-
esc
set tempo
stop
Contributor
"Amazed" by "The Offspring"

From the album "Ixnay on the Hombre"

Tabbed by Liam Jemmeson

      ~ = Let Ring
      / = Slide Up
      \ = Slide Down
      x = Scratch Strings 
pm----| = Palm Mute until line stops
        
                                                  _______________
Intro: x4                                         |4th time
E-------------------------------------------------|--------------|
B-------------------------------------------------|--------------|
G--------------------------7-7-777x\---5-55-555x--|--------------|
D---7-7-777\---5-55-555/---7-7-777x\---5-55-555x--|-7~-----------|
A---7-7-777\---5-55-555/---5-5-555x\---3-33-333x--|-7~-----------|
E---5-5-555\---3-33-333---------------------------|-5~-----------|


come in on third intro part with: x2
E---5~---7-8--5~---7-8--5~---7--8/-10--8--7/--8------------------|
B---5~--------5~--------5~----------------5---5------------------|
G----------------------------------------------------------------|
D----------------------------------------------------------------|
A----------------------------------------------------------------|
E----------------------------------------------------------------|


pre-chorus: x2
E----------------------------------------------------------------|
B----------------------------------------------------------------|
G----------------------------------------------------------------|
D----------------------------------------------------------------|
A----------------------------------------------------------------|
E--5~--/7--/8---\5~--/7--/8---\5~--/7--/8---/10--\8---\7--\5--/--|


Chorus:
E----------------------------------------------------------------|
B----------------------------------------------------------------|
G---------5-5/--9-9-9999---------------7-7-7-7-7-7---------------|
D--7--7x--5-5/--9-9-9999--5-5-5-5-5-5--7-7-7-7-7-7---------------|
A--7--7x--3-3/--7-7-7777--5-5-5-5-5-5--5-5-5-5-5-5---------------|
E--5--5x------------------3-3-3-3-3-3----------------------------|

E----------------------------------------------------------------|
B----------------------------------------------------------------|
G---------5-5/--9-9-9999-----------------------------------------|
D--7--7x--5-5/--9-9-9999--5-5-5-5-5-5--2-2-2-2-5-5/--------------|
A--7--7x--3-3/--7-7-7777--5-5-5-5-5-5--2-2-2-2-5-5/--------------|
E--5--5x------------------3-3-3-3-3-3--0-0-0-0-3-3/--------------|

x2
E----------------------------------------------------------------|
B----------------------------------------------------------------|
G---------5-5/--9-9-9999---------------7-7-7-7-7-7---------------|
D--7--7x--5-5/--9-9-9999--5-5-5-5-5-5--7-7-7-7-7-7---------------|
A--7--7x--3-3/--7-7-7777--5-5-5-5-5-5--5-5-5-5-5-5---------------|
E--5--5x------------------3-3-3-3-3-3----------------------------|


Play this after the chorus twice with the backing:
E---5~---7-8--5~---7-8--5~---7--8/-10--8--7/--8------------------|
B---5~--------5~--------5~----------------5---5------------------|
G----------------------------------------------------------------|
D----------------------------------------------------------------|
A----------------------------------------------------------------|
E----------------------------------------------------------------|
                                                  _______________
Backing:x2                                        |3rd time
E-------------------------------------------------|--------------|
B-------------------------------------------------|--------------|
G--------------------------7-7-777x\---5-55-555x--|--------------|
D---7-7-777\---5-55-555/---7-7-777x\---5-55-555x--|-7~-----------|
A---7-7-777\---5-55-555/---5-5-555x\---3-33-333x--|-7~-----------|
E---5-5-555\---3-33-333---------------------------|-5~-----------|


After the verse play the pre-chorus again: x2
E----------------------------------------------------------------|
B----------------------------------------------------------------|
G----------------------------------------------------------------|
D----------------------------------------------------------------|
A----------------------------------------------------------------|
E--5~--/7--/8---\5~--/7--/8---\5~--/7--/8---/10--\8---\7--\5--/--|


Then the Chorus: 
E----------------------------------------------------------------|
B----------------------------------------------------------------|
G---------5-5/--9-9-9999---------------7-7-7-7-7-7---------------|
D--7--7x--5-5/--9-9-9999--5-5-5-5-5-5--7-7-7-7-7-7---------------|
A--7--7x--3-3/--7-7-7777--5-5-5-5-5-5--5-5-5-5-5-5---------------|
E--5--5x------------------3-3-3-3-3-3----------------------------|

E----------------------------------------------------------------|
B----------------------------------------------------------------|
G---------5-5/--9-9-9999-----------------------------------------|
D--7--7x--5-5/--9-9-9999--5-5-5-5-5-5--2-2-2-2-5-5/--------------|
A--7--7x--3-3/--7-7-7777--5-5-5-5-5-5--2-2-2-2-5-5/--------------|
E--5--5x------------------3-3-3-3-3-3--0-0-0-0-3-3/--------------|

x2
E----------------------------------------------------------------|
B----------------------------------------------------------------|
G---------5-5/--9-9-9999---------------7-7-7-7-7-7---------------|
D--7--7x--5-5/--9-9-9999--5-5-5-5-5-5--7-7-7-7-7-7---------------|
A--7--7x--3-3/--7-7-7777--5-5-5-5-5-5--5-5-5-5-5-5---------------|
E--5--5x------------------3-3-3-3-3-3----------------------------|


Play this after the chorus twice with the backing:
E---5~---7-8--5~---7-8--5~---7--8/-10--8--7/--8------------------|
B---5~--------5~--------5~----------------5---5------------------|
G----------------------------------------------------------------|
D----------------------------------------------------------------|
A----------------------------------------------------------------|
E----------------------------------------------------------------|
                                                 _______________
Backing:x2                                        |3rd time
E-------------------------------------------------|--------------|
B-------------------------------------------------|--------------|
G--------------------------7-7-777x\---5-55-555x--|--------------|
D---7-7-777\---5-55-555/---7-7-777x\---5-55-555x--|-7~-----------|
A---7-7-777\---5-55-555/---5-5-555x\---3-33-333x--|-7~-----------|
E---5-5-555\---3-33-333---------------------------|-5~-----------|


yeah...yeah...yeah yeah

pm  |-------------------------------------|
E------------------------------------------------------------------|
B------------------------------------------------------------------|
G------------------------------------------7-7--9-9-9-9-9-9/-12-12-|
D--------------------------------7-7-7-7-7-7-7--9-9-9-9-9-9/-12-12-|
A--7-7-7-7-7-7-7--5-5-5-5-5-5-5--5-5-5-5-5-5-5--7-7-7-7-7-7/-10-10-|
E--5-5-5-5-5-5-5--3-3-3-3-3-3-3------------------------------------|


Then play the Chorus again: x2
E----------------------------------------------------------------|
B----------------------------------------------------------------|
G---------5-5/--9-9-9999---------------7-7-7-7-7-7---------------|
D--7--7x--5-5/--9-9-9999--5-5-5-5-5-5--7-7-7-7-7-7---------------|
A--7--7x--3-3/--7-7-7777--5-5-5-5-5-5--5-5-5-5-5-5---------------|
E--5--5x------------------3-3-3-3-3-3----------------------------|

E----------------------------------------------------------------|
B----------------------------------------------------------------|
G---------5-5/--9-9-9999-----------------------------------------|
D--7--7x--5-5/--9-9-9999--5-5-5-5-5-5--2-2-2-2-5-5/--------------|
A--7--7x--3-3/--7-7-7777--5-5-5-5-5-5--2-2-2-2-5-5/--------------|
E--5--5x------------------3-3-3-3-3-3--0-0-0-0-3-3/--------------|

x2
E----------------------------------------------------------------|
B----------------------------------------------------------------|
G---------5-5/--9-9-9999---------------7-7-7-7-7-7---------------|
D--7--7x--5-5/--9-9-9999--5-5-5-5-5-5--7-7-7-7-7-7---------------|
A--7--7x--3-3/--7-7-7777--5-5-5-5-5-5--5-5-5-5-5-5---------------|
E--5--5x------------------3-3-3-3-3-3----------------------------|


Finally x2
E---5~---7-8--5~---7-8--5~---7--8/-10--8--7/--8------------------|
B---5~--------5~--------5~----------------5---5------------------|
G----------------------------------------------------------------|
D----------------------------------------------------------------|
A----------------------------------------------------------------|
E----------------------------------------------------------------|
                                                 _______________
Backing:x2                                        |3rd time
E-------------------------------------------------|--------------|
B-------------------------------------------------|--------------|
G--------------------------7-7-777x\---5-55-555x--|--------------|
D---7-7-777\---5-55-555/---7-7-777x\---5-55-555x--|-7~-----------|
A---7-7-777\---5-55-555/---5-5-555x\---3-33-333x--|-7~-----------|
E---5-5-555\---3-33-333---------------------------|-5~-----------|

ThE EnD... email me for improvements or comments -->p.l.u.c.k.01@hotmail.com
comments
We did not receive enough feedback on this tab! Please rate:
print report bad tab
1 2 3 4 5
I want to post or [tab]
guest
You may want to rate the tab now too:
select rating
Please do not post tabs as comments. Select "correction" instead!