Oops, an error
Loading. Please wait.

Americana Tab

version 1
version 1

Album

Whole song

44,019 views 30 this week
10 commentsread comments
1 2 3 4 5
x 14
add to favorites
launch autoscroll
font size
0
reset
how to read this tab
guitar tuner
backing track
0:00
0:00
×
Best way to learn
"Americana"
Autoscroll
slow
fast
+/-
esc
set tempo
stop
Author
Tabbed by Michael Lynch. capitalred@theglorydays.co.uk

[TRACK 1 - WELCOME]
e|------------------------------------------------------|
B|------------------------------------------------------|
G|------------------------------------------------------|
D|------------------------------------------------------|
A|------------------------------------------------------|
E|------------------------------------------------------|

[TRACK 2 - HAVE YOU EVER]
[Intro]
e|---------------------------------------------------------------------------|
B|---------------------------------------------------------------------------|
G|---------------------------------------------------------------------9-9-9-|
D|-2-2-x-x-x-x-2-2-x-x-x-x-2-2-x-x-x-x-2-2-x-x-x-x-2-2-x-x-x-x-2-2-x-x-9-9-9-|
A|-2-2-x-x-x-x-2-2-x-x-x-x-2-2-x-x-x-x-2-2-x-x-x-x-2-2-x-x-x-x-2-2-x-x-7-7-7-|
E|-0-0-x-x-x-x-0-0-x-x-x-x-0-0-x-x-x-x-0-0-x-x-x-x-0-0-x-x-x-x-0-0-x-x-------|

e|---------------------|
B|---------------------|
G|-9-9-9-9-9-9-9-9-9-9-|
D|-9-9-9-9-9-9-9-9-9-9-|
A|-7-7-7-7-7-7-7-7-7-7-|
E|---------------------|

[Pre verse](0:12)
e|------------------------------------------------------------------|
B|------------------------------------------------------------------|
G|-9-9-9-9-9-9-9-9---------7-7-7-7--9-9-9-9-9-9-9-9---------7-7-7-7-|
D|-9-9-9-9-9-9-9-9-5-5-5-5-7-7-7-7--9-9-9-9-9-9-9-9-5-5-5-5-7-7-7-7-|
A|-7-7-7-7-7-7-7-7-5-5-5-5-5-5-5-5--7-7-7-7-7-7-7-7-5-5-5-5-5-5-5-5-|
E|-----------------3-3-3-3--------------------------3-3-3-3---------|

[Verse 1](0:23)
 pm
e|-------------------------------------------------------------------|
B|-------------------------------------------------------------------|
G|-------------------------------------------------------------------|
D|-------------------------------------------------------------------|
A|-7/10\9/10-7-7/10\9/10-7-7/10\9/10-7-7/10\9/10-5-5/9\7/9-5-5/9\7/9-|
E|-------------------------------------------------------------------|

e|----------|
B|----------|
G|----------|
D|-5/7-10-9-|(2x)
A|-5/7-10-9-|
E|-3/5--8-7-|

[Chorus](0:45)
e|-----------------------------------------------------------------|
B|-----------------------------------------------------------------|
G|-9-9-9-9-9-9-9-9-5-5-5-5-5-5-5-5-----------------7-7-7-7-7-7-7-7-|(4x)
D|-9-9-9-9-9-9-9-9-5-5-5-5-5-5-5-5-5-5-5-5-5-5-5-5-7-7-7-7-7-7-7-7-|
A|-7-7-7-7-7-7-7-7-3-3-3-3-3-3-3-3-5-5-5-5-5-5-5-5-5-5-5-5-5-5-5-5-|
E|---------------------------------3-3-3-3-3-3-3-3-----------------|

[Verse 2](1:07)
 pm_____________________|
e|-------------------------------------------------------------------|
B|-------------------------------------------------------------------|
G|-------------------------------------------------------------------|
D|-------------------------------------------------------------------|
A|-7/10\9/10-7-7/10\9/10-7-7/10\9/10-7-7/10\9/10-5-5/9\7/9-5-5/9\7/9-|
E|-------------------------------------------------------------------|

e|----------|
B|----------|
G|----------|
D|-5/7-10-9-|(2x)
A|-5/7-10-9-|
E|-3/5--8-7-|

[Chorus](1:28)
e|-----------------------------------------------------------------|
B|-----------------------------------------------------------------|
G|-9-9-9-9-9-9-9-9-5-5-5-5-5-5-5-5-----------------7-7-7-7-7-7-7-7-|(4x)
D|-9-9-9-9-9-9-9-9-5-5-5-5-5-5-5-5-5-5-5-5-5-5-5-5-7-7-7-7-7-7-7-7-|
A|-7-7-7-7-7-7-7-7-3-3-3-3-3-3-3-3-5-5-5-5-5-5-5-5-5-5-5-5-5-5-5-5-|
E|---------------------------------3-3-3-3-3-3-3-3-----------------|

[Post chorus](1:51)
e|-------------------------------------------------------------------|
B|-------------------------------------------------------------------|
G|-(9-9-9-9-9-9-9-9-9-9-9-9-9-9-9-9-9-9-9-9-9-9-9-9-9-9-9-9-9-9-9)-9-|
D|-----------------------------------------------------------------9-|
A|--7-7-7-7-7-7-7-7-7-7-7-7-7-7-7-7-7-7-7-7-7-7-7-7-7-7-7-7-7-7-7--7-|
E|-------------------------------------------------------------------|

[Interlude](2:33)
e|---------------------------------------------------------------------------|
B|---------------------------------------------------------------------------|
G|---------------------------------------------------------------------9-9-9-|
D|-2-2-x-x-x-x-2-2-x-x-x-x-2-2-x-x-x-x-2-2-x-x-x-x-2-2-x-x-x-x-2-2-x-x-9-9-9-|
A|-2-2-x-x-x-x-2-2-x-x-x-x-2-2-x-x-x-x-2-2-x-x-x-x-2-2-x-x-x-x-2-2-x-x-7-7-7-|
E|-0-0-x-x-x-x-0-0-x-x-x-x-0-0-x-x-x-x-0-0-x-x-x-x-0-0-x-x-x-x-0-0-x-x-------|

e|---------------------|
B|---------------------|
G|-9-9-9-9-9-9-9-9-9-9-|
D|-9-9-9-9-9-9-9-9-9-9-|
A|-7-7-7-7-7-7-7-7-7-7-|
E|---------------------|

[Bridge 1](2:46) ( If you want play the bass-riff with your e-guitar...)
e|-----------------------------------------------------------|
B|-----------------------------------------------------------|
G|-----------------------------------------------------------|  2x
D|-----------------------------------------------------------|
A|-----------------5-5-5-5-7-7-7-7-3-3-3-3-5-5-5-------------|
E|-0-0-0-0-3-3-3-3-------------------------------0-3-2-0-----|

[Bridge 2](3:00) (the same but with chords and distorsion)
e|-----------------------------------------------------------|
B|-----------------------------------------------------------|
G|-----------------7-7-7-7-9-9-9-9-5-5-5-5-7-7-7-------------|  7x
D|-2-2-2-2-5-5-5-5-7-7-7-7-9-9-9-9-5-5-5-5-7-7-7-------------|
A|-2-2-2-2-5-5-5-5-5-5-5-5-7-7-7-7-3-3-3-3-5-5-5-------------|
E|-0-0-0-0-3-3-3-3-------------------------------0-3-2-0-----|

[pre ending](3:42)
e|---------------------------|
B|---------------------------|
G|-5-5-5-5-7-7-7-------------|
D|-5-5-5-5-7-7-7-------------|
A|-3-3-3-3-5-5-5-------------|
E|---------------0-3-2-0-----|

[ending](3:46)
e|---------------|
B|---------------|
G|-5-5-5-5-7-----|
D|-5-5-5-5-7-----|
A|-3-3-3-3-5-----|
E|---------------|

TRACK 3 - HAVE YOU EVER
Tabbed by feesk8ordie (the_legend_kurt@hotmail.com)

C                    A             G
Maybe life is like a ride on a freeway,
C                              A                   G
dodge the bullets while you're trying to find your way,
C                     A             G
everyone's around but no-one does a damn thing,
A                        D
it brings me down, but I won't let them.

If I seem bleak, well you'd be correct,
and if I don't speak, it's 'cos I can't disconnect,
but I won't be, burned by the reflection,
of the fire in your eyes,

D                        G    A
as your'e staring at the sun, woah,
D                        G    A
as your'e staring at the sun, woah,
D                        G    A
as your'e staring at the sun, woah,
D                        G     A
as your'e staring at the sun
G                 D      A
as your'e staring at the sun.

TRACK 4 - PRETTY FLY FOR A WHITE GUY
/ = sliding
[Intro/Chorus]
e|------------------------------------------------------|
B|------------------------------------------------------|
G|--------------4-2-------------------------------------|
D|--4-4---2-4-4-2-0-------------------------------------|
A|--2-2-4-0-2-2-----------------------------------------|
E|------2-----------------------------------------------|
     repeat 3x

[Refrein]
e|--22--22--22--22--22--22------------------------------|
B|--33--33--33--33--33--33------------------------------|
G|------------------------------------------------------|
D|------------------------------------------------------|
A|------------------------------------------------------|
E|------------------------------------------------------|

[Refrein]
e|--------------------------------------------------------------|
B|--------------------------------------------------------------|
G|-------5/6-5/6------5/6-5/6-2--2---2-4-4-2--------------------|
D|--4--4-3/4-3/4-4--4-3/4-3/4-0--0-2-0-2-2-0-2------------------|
A|--2--2---------2--2--------------0---------0------------------|
E|--------------------------------------------------------------|
     repeat 3x

e|------------------------------------------------------|
B|------------------------------------------------------|
G|------------------------------------------------------|
D|--5--5---5-7-7-5------432-02--------------------------|
A|--5--5-5-5-7-7-5-5--22---2--2-------------------------|
E|-------5---------5------------------------------------|

       extra chorus
e|------------------------------------------------------|
B|------------------------------------------------------|
G|--------------4-2-----------4-2-----------------------|
D|--------------2-0--4--------2-0-----------------------|
A|---2--2--2--2------2---2--2---------------------------|
E|--0--0--0--0----------0--0----------------------------|

       End
e|------------------------------------------------------|
B|------------------------------------------------------|
G|------------------------------------------------------|
D|--5--5---5-7-7-5------432-02--------------------------|
A|--5--5-5-5-7-7-5-5--22---2--2-------------------------|
E|-------5---------5------------------------------------|
     repeat 3x

TRACK 5 - THE KIDS AREN'T ALRIGHT
e|--------------------------------------------------|
B|--------------------------------------------------|
G|--------------------------------------------------|
D|-----6-----6-----6--5-5-5/6------6-----6-5-5-5\6--|
A|-8-8-8-8-8-8-8-8-8--8-8-8-8--4-4-4-4-4-4-4-4-4-4--|
E|--------------------------------------------------|

e|---------------------------------------|
B|---------------------------------------|
G|---------------------------------------|
D|-----5----5----5-5-5/6---8--6--5-5-5/6-|
A|-6-6-6-6-6-6-6-6-6-6/6---6--6--6-6-6/6-|
E|---------------------------------------| X2

e|------------------------------------------------------------------|
B|------------------------------------------------------------------|
G|------------------------------------------------------------------|
D|------------------------------------------------------------------|
A|-1--1--1/3--3/4------3-4----------3-4-6-4--3/4--------------------|
E|----------------2--2-----4--4-4/6---------------------------------| X2

[VERSE/CHORUS]
e|----------------|
B|----------------|
G|---------6------|
D|-8---4---6---6--|
A|-8---4---4---6--|
E|-6---2-------4--|
   x8

[SOLO]
e|----------------------------------------------------------------|
B|-----------------------------------------/-7b--9b----12b----14--|b
G|----------------------------------------------------------------|
D|----------------------------------------------------------------|
A|-8-\----1-----1/3--4----4/6---6-6/8-----------------------------|
E|----------------------------------------------------------------|

e|-------------16----------------------------13---13--13----13------|
B|------16^----------16b-(18)-16r--14--16--16b----------------------|
G|------------------------------------------------------------------|
D|------------------------------------------------------------------|
A|------------------------------------------------------------------|
E|------------------------------------------------------------------|

e|--13--13----13--13----13---13---13--------------------------------|
B|-------------------------------------16b---16r--14-------14-16-14-|
G|------------------------------------------------------15----------|
D|------------------------------------------------------------------|
A|------------------------------------------------------------------|
E|------------------------------------------------------------------|

e|---------------------------------------9---9---------------------|
B|-----14-\--9--------------------9---9--------------9-------------|
G|-15-----------11b---11---11---------------------------10---11/13-|
D|-----------------------------------------------------------------|
A|-----------------------------------------------------------------|
E|-----------------------------------------------------------------|

e|---------------------------------------------------------------|
B|---------------14---14---16b--16--16--16--14---16b~~---14\-----|
G|-13--13---13/--------------------------------------------------|
D|---------------------------------------------------------------|
A|---------------------------------------------------------------|
E|---------------------------------------------------------------|

[OUTRO]
e|-------------------------------------------|
B|--11--9--11--9--11--9--11--9--11--9--11--9-|
G|-------------------------------------------|
D|-------------------------------------------|
A|-------------------------------------------|
E|-------------------------------------------|

[TRACK 6 - FEELINGS]
[Intro]
e|-----------------------------------------------------------------|
B|-----------------------------------------------------------------|
G|--5----------5----5--5--5--5----------5----5--5--5--5----------5-|
D|--7--7-7-7-7-7----7--7--7--6--6-6-6-6-6----6--6--6--5--5-5-5-5-5-|
A|-----------------------------------------------------------------|
E|-----------------------------------------------------------------|

e|-------------------------------------------------------------|
B|-------------------------------------------------------------|
G|---5--5--5--7----------7----7--7--7--7----------7----7--7--7-|
D|---5--5--5--4--4-4-4-4-4----4--4--4--3--3-3-3-3-3----3--3--3-|
A|-------------------------------------------------------------|
E|-------------------------------------------------------------|

e|--------------------------------------------------------------------|
B|--------------------------------------------------------------------|
G|---7----------7----7--7--7---------------------------9---9----9---9-|
D|---5--5-5-5-5-5----5--5--5---7--7---7----7--7--7-----9---9----9---9-|
A|-----------------------------7--7---7----7--7--7-----7---7----7---7-|
E|-----------------------------5--5---5----5--5--5--0-----------------|

e|---------------------------------------------------------------|
B|---------------------------------------------------------------|
G|------9---9----9---9-----9---9----9---9--9--9--9--9--9--9--9\--|
D|------9---9----9---9-----9---9----9---9--9--9--9--9--9--9--9\--|
A|------7---7----7---7-----7---7----7---7--7--7--7--7--7--7--7\--|
E|---0------------------0----------------------------------------|

[Verse]
e|-||---------------------------------------------------|
B|-||---------------------------------------------------|
G|-||---------------------------------------------------|
D|-||---------------------------------------------------|
A|-||--3----------3----3--3--3--3----------3----3--3--3-|
E|-||--5--5-5-5-5-5----5--5--5--4--4-4-4-4-4----4--4--4-|
      Feel - ings          ...             Nothing...

e|----------------------------------------------------|
B|----------------------------------------------------|
G|----------------------------------------------------|
D|----------------------------------------------------|
A|---3----------3----3--3--3--5----------5----5--5--5-|
E|---3--3-3-3-3-3----3--3--3--2--2-2-2-2-2----2--2--2-|
    feel - ings

e|----------------------------------------------------|
B|----------------------------------------------------|
G|----------------------------------------------------|
D|----------------------------------------------------|
A|---5----------5----5--5--5--5----------5----5--5----|
E|---1--1-1-1-1-1----1--1--1--3--3-3-3-3-3----3--3/5--|

       get     my
e|---------------------------------------------|-|
B|---------------------------------------------|-|
G|-----------------------------9---9----9----9-|-|
D|---7--7----7-----7--7--7-----9---9----9----9-|-|
A|---7--7----7-----7--7--7-----7---7----7----7-|-|
E|---5--5----5-----5--5--5--0------------------|-|

[Chorus]
e|-----------------------------------------------------------------------|
B|-----------------------------------------------------------------------|
G|-------------------------------------------------5--5----5--5--5----5--|
D|---3--3----3--3--3----3--3--3-----3--3--3-----3--5--5----5--5--5----5--|
A|---3--3----3--3--3----3--3--3-----3--3--3-----3--3--3----3--3--3----3--|
E|---1--1----1--1--1----1--1--1-----1--1--1-----1------------------------|
    Feel    -   ings            oh     oh-------------------------------|     feel   -  ings

e|---------------------------------------------------------------------|
B|---------------------------------------------------------------------|
G|---5--5----5--5--5-----5--7--7----7--7--7----7--9--9-----9-----9--9\-|
D|---5--5----5--5--5-----5--7--7----7--7--7----7--9--9-----9-----9--9\-|
A|---3--3----3--3--3-----3--5--5----5--5--5----5--7--7-----7-----7--7\-|
E|---------------------------------------------------------------------|
            oh  oh---      feel  -  ings

e|------------------------------------------------------------------|
B|------------------------------------------------------------------|
G|------------------------------------------------------------------|
D|---7--7----7--7--7----7--7--7--7--7--7--7--7\3--3----3--3--3----3-|
A|---7--7----7--7--7----7--7--7--7--7--7--7--7\3--3----3--3--3----3-|
E|---5--5----5--5--5----5--5--5--5--5--5--5--5\1--1----1--1--1----1-|
                                              Feel  -  ings

e|--------------------------------------------------------------------|
B|--------------------------------------------------------------------|
G|-------------------------5--5----5--5--5----5--5--5----5--5--5----5-|
D|---3--3----3--3--3----3--5--5----5--5--5----5--5--5----5--5--5----5-|
A|---3--3----3--3--3----3--3--3----3--3--3----3--3--3----3--3--3----3-|
E|---1--1----1--1--1----1---------------------------------------------|
         oh  oh---        feel  -  ings

[Coda 1]
e|-----------------------------------------------0--0----0--0--0---0---0-|
B|-----------------------------------------------0--0----0--0--0---0---0-|
G|---7--7----7--7--7----7--4--4----4--4--4----4--1--1----1--1--2---2---2-|
D|---7--7----7--7--7----7--4--4----4--4--4----4--2--2----2--2--2---2---2-|
A|---5--5----5--5--5----5--2--2----2--2--2----2--2--2----2--2--2---2---2-|
E|-----------------------------------------------0--0----0--0--0---0---0-|
                                  of hate on my        mind_________________

e|---0---0---0---0--0----0-|
B|---0---0---0---0--0----0-|
G|---2---2---2---1--1----1-|
D|---2---2---2---2--2----2-|
A|---2---2---2---2--2----2-|
E|---0---0---0---0--0----0-|

[Coda 2]
e|------------------------------------------|
B|------------------------------------------|
G|---7--7---7--7--7---7--4--4---4--4--4---4-|
D|---7--7---7--7--7---7--4--4---4--4--4---4-|
A|---5--5---5--5--5---5--2--2---2--2--2---2-|
E|------------------------------------------|

e|------------------------------------------------------------|
B|--------------------------------9---9------9-----10--10--10-|
G|---4---4------4---4---4-----4---9---9------9------9---9---9-|
D|---4---4------4---4---4-----4---9---9------9------9---9---9-|
A|---2---2------2---2---2-----2---7---7------7------7---7---7-|
E|------------------------------------------------------------|
     You're    note    ver - y            nice_______________
e-----------------------------|
B--10-10-10-10-10-10-10-10--9-|
G---9--9--9--9--9--9--9--9--9-|
D---9--9--9--9--9--9--9--9--9-|
A---7--7--7--7--7--7--7--7--7-|
E-----------------------------|

[Guitar Solo]
     Am                Ab                C5/G          D/F#    F6
e|---------------------------------------------------------------------|
B|---5---5-5---5----5--5---5-5---5----5--5---5-8--5--------------------|
G|---7^----7^----7^----7^----7^----7^----7^---------5------------------|
D|-----------------------------------------------------7~---(7)\---5/7-|
A|-------------------------------------------------------------/7------|
E|---------------------------------------------------------------------|

              G5                    A5          E5
e|---------------------------------------------------------0--|
B|---5-------------------17---17----------------5--5---5------|
G|---5-------------------17---17-17-------------7^-7^--7^-----|
D|------7-7-5------17/19------------19~---(19)\---------------|
A|-------------/19--------------------------------------------|
E|------------------------------------------------------------|

                              Ab                       C5/G
e|------------------------------------------------------------------------|
B|---17--17-17---17-----17-17---17-17---17------17--17---17-20^--20-17----|
G|---19^----19^ ----19^----19^-----19^-----19^------19^----------------17-|
D|------------------------------------------------------------------------|
A|------------------------------------------------------------------------|
E|------------------------------------------------------------------------|

     D/F#            F6                   G5                 A5
e|----------------------------------------20^---20---17-17-17--(17)~-|
B|-----------------------------17---17-17------------17--------------|
G|-------------------------x-x-17---17-17----------------------------|
D|---19~----17/19----/19---------------------------------------------|
A|---------------17\----19-------------------------------------------|
E|-------------------------------------------------------------------|

   E5             E  E5            E  E5
e|---------------------------------------------------------------------------|
B|-5--5---5--5----10--10---10---0--13--13---13---0------17-17-17---17--------|
G|-7^-7^--7^-7^---12^-12^--12^-----15^-15^--15^-----19^-------19^--19^--(19--|
D|---------------------------------------------------------------------------|
A|---------------------------------------------------------------------------|
E|---------------------------------------------------------------------------|

[Coda 3]
e|--------------------------------------------------------------------|
B|--------------------------------------------------------------------|
G|---7---7--7--7--7--7--7\9---9--9--9--9--9---9-----------------------|
D|---7---7--7--7--7--7--7\9---9--9--9--9--9---9--7---7--7--7--7--7--7-|
A|---5---5--5--5--5--5--5\7---7--7--7--7--7---7--7---7--7--7--7--7--7-|
E|-----------------------------------------------5---5--5--5--5--5--5-|
    feel  -  ings            get out   of my        life

e|------------------------------------------------------|
B|------------------------------------------------------|
G|------------------------------------------------------|
D|---7--7--7--7--7--7--7--7\ ->goes directly to "Outro--|
A|---7--7--7--7--7--7--7--7\----------------------------|
E|---5--5--5--5--5--5--5--5\----------------------------|

[Outro]
e|-------------------------------------------------------------|
B|-------------------------------------------------------------|
G|-----------------------------x---5-----5-----(5)-----------5-|
D|---3-----3----------------3--x---5-----5-----(5)-----------5-|
A|---3-----3----------------3--x---3-----3-----(3)-----------3-|
E|---1-----1----------------1----------------------------------|
   Feel  -  ings   oh oh___       feel - ings     oh oh...

e|---------------------------------------------|
B|---------------------------------------------|
G|---7--------------------9--------------------|
D|---7---7--7--7--7--7--7/9---9--9--9--9--9--9-|
A|---5---5--5--5--5--5--5/7---7--7--7--7--7--7-|
E|---------------------------------------------|

[Final Solo]
(look ledgend above)
e|------------------------------------------------------------------------|
B|------17-20/17-------17-20/17------17-20/17------17-20/17------17-20/17-|
G|-19*-----------19*-----------19*-----------19*-----------19*------------|
D|------------------------------------------------------------------------|
A|------------------------------------------------------------------------|
E|------------------------------------------------------------------------|

e|------------------------------------------------------------------------|
B|------17-20/17-------17-20/17------17-20/17------17-20/17------17-20/17-|
G|-19*-----------19*-----------19*-----------19*-----------19*------------|
D|------------------------------------------------------------------------|
A|------------------------------------------------------------------------|
E|------------------------------------------------------------------------|

e|-----------------------------|
B|-----------------------------|
G|---19/17---------------------|
D|------------------19---(19)\-|
A|-----------------------------|
E|-----------------------------|

Order:
Intro   x1
Verse   x2
Chorus  x1
Coda 1  x1
Verse   x2
Chorus  x1
Coda 2  x1
Solo    x1
Chorus  x1
Coda 3  x1
Outro   x1
Final Solo.

TRACK 7 - SHE'S GOT ISSUES

[Intro]
  E5  PM....................
e|-----------------|-----------------|
B|-----------------|-----------------|
G|-9=9-------------|-9-9-9-9-9-9-9-9-|
D|-9=9-9-9-9-9-9-9-|-9-9-9-9-9-9-9-9-|
A|-7=7-7-7-7-7-7-7-|-7-7-7-7-7-7-7-7-|
E|-----------------|-----------------|

  E5  PM....................
e|-----------------|-----------------|
B|-----------------|-----------------|
G|-9=9-------------|-9-9-9-9-9-9-9-9-|
D|-9=9-9-9-9-9-9-9-|-9-9-9-9-9-9-9-9-|
A|-7=7-7-7-7-7-7-7-|-7-7-7-7-7-7-7-7-|
E|-----------------|-----------------|

[Verse 1]
Guitar 2 goes rest during the first 4 bars
Part 1
           PM.
e|-----------------|-----------------|
B|-----------------|-----------------|
G|-9-9---------9---|-4-4-------4-4-6-|
D|-9-9-------9-9---|-4-4-------4-4-6-|
A|-7-7-------7-7---|-2-2-------2-2-4-|
E|-----------------|-----------------|

                             PM.
e|-----------------|-----------------|
B|-----------------|-----------------|
G|-7-7-------7-7-9-|-----------------|
D|-7-7-------7-7-9-|-7-7---------7---|
A|-5-5-------5-5-7-|-7-7-------7-7---|
E|-----------------|-5-5-------5-5---|

[Part 2]
   E5                B5
e|-----------------|-----------------|
B|-----------------|-----------------|
G|-9-9---------9---|-4-4-------4-4-6-|
D|-9-9-------9-9---|-4-4-------4-4-6-|
A|-7-7-------7-7---|-2-2-------2-2-4-|
E|-----------------|-----------------|

   E                 B
e|---------4-------|-----------------|
B|-----5-----5-----|---------4-------|
G|---4---4---------|-----4-----4-----|
D|-----------------|---4---4---------|
A|-----------------|-----------------|
E|-----------------|-----------------|

e|-----------------|-----------------|
B|-----------------|-----------------|
G|-7-7-------7-7-9-|-----------------|
D|-7-7-------7-7-9-|-7-7---------7---|
A|-5-5-------5-5-7-|-7-7-------7-7---|
E|-----------------|-5-5-------5-5---|

e|---------2-------|-------------4---|
B|-----4-----4-----|---------2-----5-|
G|---2---2---------|-----2-----2-----|
D|-----------------|---2---2---------|
A|-----------------|-----------------|
E|-----------------|-----------------|

[Verse 2]
Singing part
   E5                B5
e|-----------------|-----------------|
B|-----------------|-----------------|
G|-9-9-------------|-----------------|
D|-9-9-------------|-----------------|
A|-7-7-------------|-----------------|
E|-----------------|-----------------|
 
e|-----------------|-----------------|
B|-----------------|-----------------|
G|-----------------|-----------------|
D|-----------------|-----------------|
A|-----------------|-----------------|
E|-----------------|-----------------|

[Pre Chorus 1]
This part is diffrent than the verse
e|-----|-----------------|-----------------|
B|-----|-----------------|-----------------|
G|-X-X-|-9-9---------9---|-4-4---------X-X-|
D|-X-X-|-9-9---------9---|-4-4---------X-X-|
A|-X-X-|-7-7---------7---|-2-2---------X-X-|
E|-----|-----------------|-----------------|

e|-----------------|-----------------|
B|-----------------|-----------------|
G|-7-7---------<7>-|-----------------|
D|-7-7----------<7>|-7-7------<7<7>--|
A|-5-5-------------|-7-7------<7<7>--|
E|-----------------|-5-5-------X-X---|

e|-----------------|-----------------|
B|-----------------|-----------------|
G|-9-9---------X-X-|-4-4-------------|
D|-9-9---------X-X-|-4-4-----------X-|
A|-7-7---------X-X-|-2-2-----------X-|
E|-----------------|-----------------|

e|-----------------|-----------------|
B|-----------------|-----------------|
G|-7-7-----------9-|-----------------|
D|-7-7-------7-7-9-|-7-7-7-7-7-7-7-7-|
A|-5-5-------5-5-7-|-7-7-7-7-7-7-7-7-|
E|-----------------|-5-5-5-5-5-5-5-5-|

[Chorus]
e|-----------------|-----------------|
B|-----------------|-----------------|
G|.9-9-9===8-9-9-9-|-4-4-4===3-4-4-4-|
D|.9-9-9===8-9-9-9-|-4-4-4===3-4-4-4-|
A|-7-7-7===6-7-7-7-|-2-2-2===1-2-2-2-|
E|-----------------|-----------------|

[Chorus outro]
e|-----------------|-----------------|-----|
B|-----------------|-----------------|-----|
G|-7-7-7-7-7-7-7-7-|----------------.|-9-9-|
D|-7-7-7-7-7-7-7-7-|-7-7-7-7-7-7-7-7.|-9-9-|
A|-5-5-5-5-5-5-5-5-|-7-7-7-7-7-7-7-7-|-7-7-|
E|-----------------|-5-5-5-5-5-5-5-5-|-----|

[Prechorus 2]
e|-----|-----------------|-----------------|
B|-----|---------9-------|---------4-------|
G|-XXX-|-9-9-9-----9-----|-----4-----4-----|
D|-XXX-|-9-9---9---------|---4---4---------|
A|-XXX-|-7-7-------------|-----------------|
E|-----|-----------------|-----------------|

e|---------2-------|-------------4---|
B|-----4-----4-----|---------2-----5-|
G|---2---2---------|-----2-----2-----|
D|-----------------|---2---2---------|
A|-----------------|-----------------|
E|-----------------|-----------------|

[Then goto Chorus but don't play chorus outro]
[Bridge]
[Both guitars]
e|-----------------|-----------------|
B|-----------------|-----------------|
G|-5-5-5-5-5-5-5---|-----------------|
D|-5-5-5-5-5-5-5---|-5-5-5-5-5-5-5---|
A|-3-3-3-3-3-3-3---|-5-5-5-5-5-5-5---|
E|-----------------|-3-3-3-3-3-3-3---|

e|-----------------|-----------------|
B|-----------------|-----------------|
G|-7-7-7-7-7-7-7---|-----------------|
D|-7-7-7-7-7-7-7---|-7-7-7-7-7-7-7---|
A|-5-5-5-5-5-5-5---|-7-7-7-7-7-7-7---|
E|-----------------|-5-5-5-5-5-5-5---|

e|-----------------|-----------------|
B|-----------------|-----------------|
G|-5-5-5-5-5-5-5---|-----------------|
D|-5-5-5-5-5-5-5---|-5-5-5-5-5-5-5---|
A|-3-3-3-3-3-3-3---|-5-5-5-5-5-5-5---|
E|-----------------|-3-3-3-3-3-3-3---|

  PM........................
e|-----------------|-----------------|
B|-----------------|-----------------|
G|-----------------|-----------------|
D|-----------------|-9-9-9-9-9-9-9-9-|
A|-9-9-9-9-9-9-9-9-|-9-9-9-9-9-9-9-9-|
E|-7-7-7-7-7-7-7-7-|-7-7-7-7-7-7-7-7-|

[Then go play Verse 1, Part 2 twice]
[Then goto Verse 2]

[Prechorus 3]
             PM.....           .....
e|-----|-----------------|-----------------|
B|-----|-----------------|-----------------|
G|-X-X-|-9-9---------9---|-4-4-------4-4-6-|
D|-X-X-|-9-9---------9---|-4-4-------4-4-6-|
A|-X-X-|-7-7-7-7-7-7-7---|-2-2-2-2-2-2-2-4-|
E|-----|-----------------|-----------------|

       .....             ...........
e|-----------------|-----------------|
B|-----------------|-----------------|
G|-7-7-------7-7-9-|-----------------|
D|-7-7-------7-7-9-|-7-7---------7---|
A|-5-5-5-5-5-5-5-7-|-7-7-------7-7-7-|
E|-----------------|-5-5-5-5-5-5-5-5-|

            PM.....           .....
e|-----------------|-----------------|
B|-----------------|-----------------|
G|-9-9---------9---|-4-4-------4-4-6-|
D|-9-9---------9---|-4-4-------4-4-6-|
A|-7-7-7-7-7-7-7---|-2-2-2-2-2-2-2-4-|
E|-----------------|-----------------|

       .....
e|-----------------|-----------------|
B|-----------------|-----------------|
G|-7-7-------7-7-9-|-----------------|
D|-7-7-------7-7-9-|-7-7-7-7-7-7-7-7-|
A|-5-5-5-5-5-5-5-7-|-7-7-7-7-7-7-7-7-|
E|-----------------|-5-5-5-5-5-5-5-5-|

[Chorus 2]X4
e|-----------------|-----------------|
B|-----------------|-----------------|
G|.9-9-9===8-9-9-9-|-4-4-4===3-4-4-4-|
D|.9-9-9===8-9-9-9-|-4-4-4===3-4-4-4-|
A|-7-7-7===6-7-7-7-|-2-2-2===1-2-2-2-|
E|-----------------|-----------------|

e|-----------------|-----------------|
B|-----------------|-----------------|
G|-7-7-7-7-7-7-7-7-|----------------.|
D|-7-7-7-7-7-7-7-7-|-7-7-7-7-7-7-7-7.|
A|-5-5-5-5-5-5-5-5-|-7-7-7-7-7-7-7-7-|
E|-----------------|-5-5-5-5-5-5-5-5-|

With: during 3rd Bar of the the second chorus
e|---------4-------|-----------------|
B|-----5-----5-----|---------4-------|
G|.--4---4---------|-----4-----4-----|
D|.----------------|---4---4---------|
A|-----------------|-----------------|
E|-----------------|-----------------|

e|---------2-------|-------------4---|
B|-----4-----4-----|---------2-----5-|
G|---2---2---------|-----2-----2----.|
D|-----------------|---2---2--------.|
A|-----------------|-----------------|
E|-----------------|-----------------|

[Outro]
Very similar to bridge
Both guitars
e|-----------------|-----------------|
B|-----------------|-----------------|
G|.5-5-5-5-5-5-5---|-----------------|
D|.5-5-5-5-5-5-5---|-5-5-5-5-5-5-5---|
A|-3-3-3-3-3-3-3---|-5-5-5-5-5-5-5---|
E|-----------------|-3-3-3-3-3-3-3---|

e|-----------------|-----------------|
B|-----------------|-----------------|
G|-7-7-7-7-7-7-7---|----------------.|
D|-7-7-7-7-7-7-7---|-7-7-7-7-7-7-7--.|
A|-5-5-5-5-5-5-5---|-7-7-7-7-7-7-7---|
E|-----------------|-5-5-5-5-5-5-5---|

e|-----------------|-----------------|
B|-----------------|-----------------|
G|-5-5-5-5-5-5-5---|-----------------|
D|-5-5-5-5-5-5-5---|-5-5-5-5-5-5-5---|
A|-3-3-3-3-3-3-3---|-5-5-5-5-5-5-5---|
E|-----------------|-3-3-3-3-3-3-3---|

  PM........................
e|-----------------|-----------------|
B|-----------------|-----------------|
G|-----------------|-----------------|
D|-----------------|-9-9-9-9-9-9-9-9-|
A|-9-9-9-9-9-9-9-9-|-9-9-9-9-9-9-9-9-|
E|-7-7-7-7-7-7-7-7-|-7-7-7-7-7-7-7-7-|

e|-----------------|-----------------|
B|-----------------|-----------------|
G|-9==============================(9)|
D|-9==============================(9)|
A|-7==============================(7)|
E|-----------------|-----------------|

TRACK 8 - WALLA WALLA
[Intro]
e|-------------------|-----------------|-----------------|-----------------|
B|-------------------|-----------------|-----------------|-----------------|
G|-------------------|-----------------|-----------------|-----------------|
D|---3-3---3-3-3-2-0-|-----------------|-----------------|-------------0-2-|
A|-------------------|-3-3---3-3-3-2-0-|-------------0-2-|-3-3---3-3-3-----|
E|-------------------|-----------------|-3-3---3-3-3-----|-----------------|

e|-------------------|-----------------|-----------------|-----------|
B|-------------------|-----------------|-----------------|-----------|
G|-------------------|-----------------|-----------------|-5--5--5---|
D|---3-3---3-5/3-2-0-|-----------------|-----------------|-5--5--5---|
A|-------------------|-3-3---3-3-3-2-0-|-------------0-2-|-3--3--3---|
E|-------------------|-----------------|-3-3---3-3-3-----|-----------|

[Verse]
[All palm muted]
e|----------------------------------|----------------------------------|
B|----------------------------------|----------------------------------|
G|----------------------------------|-5---5---5-5-5---5-5-5---5---5-5--|
D|--3---3---3-3-3---3-3-3---3---3-3-|-5---5---5-5-5---5-5-5---5---5-5--|
A|--3---3---3-3-3---3-3-3---3---3-3-|-3---3---3-3-3---3-3-3---3---3-3--|
E|--1---1---1-1-1---1-1-1---1---1-1-|----------------------------------|

e|----------------------------------|----------------------------------|
B|----------------------------------|----------------------------------|
G|----------------------------------|-5---5---5-5-5---5-5-5---5---5-5--|
D|--5---5---5-5-5---5-5-5---5---5-5-|-5---5---5-5-5---5-5-5---5---5-5--|
A|--5---5---5-5-5---5-5-5---5---5-5-|-3---3---3-3-3---3-3-3---3---3-3--|
E|--3---3---3-3-3---3-3-3---3---3-3-|----------------------------------|

e|----------------------------------|----------------------------------|
B|----------------------------------|----------------------------------|
G|----------------------------------|-5---5---5-5-5---5-5-5---5---5-5--|
D|--3---3---3-3-3---3-3-3---3---3-3-|-5---5---5-5-5---5-5-5---5---5-5--|
A|--3---3---3-3-3---3-3-3---3---3-3-|-3---3---3-3-3---3-3-3---3---3-3--|
E|--1---1---1-1-1---1-1-1---1---1-1-|----------------------------------|

e|----------------------------------|----------------------------------|
B|----------------------------------|----------------------------------|Last 4
G|----------------------------------|-5--------5--------5--------6-----|are not
D|--5---5---5-5-5---5-5-5---5---5-5-|-5--------5--------5--------6-----|muted
A|--5---5---5-5-5---5-5-5---5---5-5-|-3--------3--------3--------4-----|
E|--3---3---3-3-3---3-3-3---3---3-3-|----------------------------------|

Goodbye my friend, you've messed up again.
You're going to prison, you're of to the pen.
You've gotten of easy so many times.
I guess no-one told you how to get a life!
The judge wasn't lenient like he was before.
You got three to five and a kick out the door.
The public defender really did try.
Too little to late, you didn't get a life!

[Chorus]
e|------------------|------------------|-----------------|-----------------|
B|------------------|------------------|-----------------|-----------------|
G|--7-7---7-7-7---7-|-7-7-7-7-7/9-9/10-|-1010-101010--10-|-10--10--10--10--|
D|--7-7---7-7-7---7-|-7-7-7-7-7/9-9/10-|-1010-101010--10-|-10--10--10--10--|
A|--5-5---5-5-5---5-|-5-5-5-5-5/7-7/8--|-8-8---8-8-8---8-|--8---8---8---8--|
E|------------------|------------------|-----------------|-----------------|

e|------------------|-----------------|-----------------|----------------|
B|------------------|-----------------|-----------------|----------------|
G|--5-5---5-5-5---5-|-5-5-5-5-5-5-5-5-|-----------------|----------------|
D|--5-5---5-5-5---5-|-5-5-5-5-5-5-5-5-|-5-5---5-5-5---5-|-5---5---5---5--|
A|--3-3---3-3-3---3-|-3-3-3-3-3-3-3-3-|-5-5---5-5-5---5-|-5---5---5---5--|
E|------------------|-----------------|-3-3---3-3-3---3-|-3---3---3---3--|

e|----------------|---------------|----------------|-----------------|
B|----------------|---------------|----------------|-----------------|
G|--7---7---7---7-|-7---7---7---9-|-10--10--10--10-|-10--10--10--10--|
D|--7---7---7---7-|-7---7---7---9-|-10--10--10--10-|-10--10--10--10--|
A|--5---5---5---5-|-5---5---5---7-|--8---8---8---8-|--8---8---8---8--|
E|----------------|---------------|----------------|-----------------|

e|------------------|-----------------|-----------------|----------------|
B|------------------|-----------------|-----------------|----------------|
G|--5-5---5-5-5---5-|-5-5-5-5-5-5-5-5-|-----------------|----------------|
D|--5-5---5-5-5---5-|-5-5-5-5-5-5-5-5-|-5-5---5-5-5---5-|-5---5---5---5--|
A|--3-3---3-3-3---3-|-3-3-3-3-3-3-3-3-|-5-5---5-5-5---5-|-5---5---5---5--|
E|------------------|-----------------|-3-3---3-3-3---3-|-3---3---3---3--|

Hey in walla, I'll see you in-a walla walla.
Slap on the wrist, well not this time.
Hey in walla, I'll see you in-a walla walla.
Folsom prison is the destination.
Hey in walla, I'll see you in-a walla walla.
Slap on the wrist, well not this time.
In the scheme of life were all just brothers.
Rehabilitate with all the others.
Well I'll see ya.

[Verse]
That car looked so tempting, so easy to drive.
Just like that apartment that you burglaized.
You started to run but didn't get far.
Cause under your arm was a V.C.R!

[Chorus]
[Bridge]
[All palm muted]
e|------------------|-----------------|---------------|---------------|
B|------------------|-----------------|---------------|---------------|
G|----------------0-|-5-5-5-5---5-5---|---------------|-5---5---5-5-0-|
D|--3-3-3-3---3-3-0-|-5-5-5-5---5-5-5-|-5---5---5-5-5-|-5---5---5-5-0-|
A|--3-3-3-3---3-3---|-3-3-3-3---3-3-5-|-5---5---5-5-5-|-3---3---3-3---|
E|--1-1-1-1---1-1---|---------------3-|-3---3---3-3-3-|---------------|

Spoken
I'm innocent, I didn't do it, I didn't do nothing man.
This is bullshit. He just gave it to me. It was a present.

e|--------1---1-1---|-------0---0-0---|-------1---1-1---|-------0---0-0---|
B|--------1---1-1-0-|-------1---1-1-0-|-------0---0-0-0-|-------1---1-1-0-|
G|--------2---2-2-0-|-------0---0-0-0-|-------0---0-0-0-|-------0---0-0-0-|
D|--------2---2-2-0-|-------2---2-2-0-|-------0---0-0-0-|-------2---2-2-0-|
A|--------3---3-3---|-3-----3---3-3---|-------2---2-2---|-3-----3---3-3---|
E|--1-----1---1-1---|-----------------|-3-----3---3-3---|-----------------|

Spoken
Ho ho, not this time my friend.
You'll be in lockdoen by ten.
I'm afraid you can't talk your way out of this one, son.
The four walls are your twenty four hour a day constant companions.

WELL I'LL SEE YA!!!
TRACK 9 - THE END OF THE LINE

[Intro]
e|-------------------------------------------------------------|
B|-------------------------------------------------------------|
G|-------------------------------9-9-9-9-9-9-6-6-6-6-6-6-6-6-6-|
D|-4-4-2-4---4-4-2-4---4-4-2-4---9-9-9-9-9-9-6-6-6-6-6-6-6-6-6-|
A|-4-4-2-4---4-4-2-4---4-4-2-4---7-7-7-7-7-7-4-4-4-4-4-4-4-4-4-|
E|-2-2-0-2---2-2-0-2---2-2-0-2---------------------------------|

[Verse]
 pm___| |____________________| |____________________| |______
e|--------------------------------------------------------------------|
B|--------------------------------------------------------------------|
G|----------7-7-7-4-4-4-4-4-----------7-7-7-9-9-9-9-9-----------7-7-7-|
D|-4-4-2-4--7-7-7-4-4-4-4-4--4-4-2-4--7-7-7-9-9-9-9-9--4-4-2-4--7-7-7-|
A|-4-4-2-4--5-5-5-2-2-2-2-2--4-4-2-4--5-5-5-7-7-7-7-7--4-4-2-4--5-5-5-|
E|-2-2-0-2-------------------2-2-0-2-------------------2-2-0-2--------|

  __________|
e|------------------------------------------|
B|------------------------------------------|
G|-4-4-4-4-4--9-9-9-9-9-9-6-6-6-6-6-6-6-6-6-|
D|-4-4-4-4-4--9-9-9-9-9-9-6-6-6-6-6-6-6-6-6-|
A|-2-2-2-2-2--7-7-7-7-7-7-4-4-4-4-4-4-4-4-4-|
E|------------------------------------------|

[Chorus]
e|--------------------------------------------------------------------------|
B|--------------------------------------------------------------------------|
G|-------------------------9-9-9-9-9-9-4-4-4-4-4-4--------------------------|
D|-4-4-4-4-4-4-7-7-7-7-7-7-9-9-9-9-9-9-4-4-4-4-4-4--4-4-4-4-4-4-7-7-7-7-7-7-|
A|-4-4-4-4-4-4-7-7-7-7-7-7-7-7-7-7-7-7-2-2-2-2-2-2--4-4-4-4-4-4-7-7-7-7-7-7-|
E|-2-2-2-2-2-2-5-5-5-5-5-5--------------------------2-2-2-2-2-2-5-5-5-5-5-5-|

e|-------------------------|
B|-------------------------|
G|-9-9-9-9-9-9-6-6-6-6-6-6-|
D|-9-9-9-9-9-9-6-6-6-6-6-6-|
A|-7-7-7-7-7-7-4-4-4-4-4-4-|
E|-------------------------|

[Outro]
e|------|
B|------|
G|------|
D|-4:---|
A|-4:---|
E|-2:---|

TRACK 10 - No Breaks
e|--------------------------------------|
B|--------------------------------------|
G|-9-9---9---------------12-12-12-11-12-|
D|-9-9---9-5-5---5-7-7---12-12-12-11-12-|
A|-7-7---7-5-5---5-7-7---10-10-10--9-10-|
E|---------3-3---3-5-5------------------|

[Chorus]
e|-------------------------------------------------------|
B|-------------------------------------------------------|
G|-----------------7-7-7-7-7-7-7-7-5-5-5-5-5-5-5-5-4-5-7-|
D|-5-5-5-5-5-5-5-5-7-7-7-7-7-7-7-7-5-5-5-5-5-5-5-5-4-5-7-|
A|-5-5-5-5-5-5-5-5-5-5-5-5-5-5-5-5-3-3-3-3-3-3-3-3-2-3-5-|
E|-3-3-3-3-3-3-3-3---------------------------------------|

e|------------------------------------------------------------------|
B|------------------------------------------------------------------|
G|-9-7-9-12-12-11--9-7-9-14-14b-12--9-7-9-12-12-11--9-7-9-14-14b-12-|
D|-9-7-9-12-12-11--9-7-9-14-14b-12--9-7-9-12-12-11--9-7-9-14-14b-12-|
A|-7-5-7-10-10--9--7-5-7-12-12b-10--7-5-7-10-10--9--7-5-7-12-12b-10-|
E|------------------------------------------------------------------|

[Chorus]
     F         Bb         C           G
e|---1----------1---------3-----------3------------|
B|---1----------3---------5-----------3------------|
G|---2----------3---------5-----------4------------|
D|---3----------3---------5-----------5------------|
A|---3----------1---------3-----------5------------|
E|---1--------------------------------3------------|

TRACK 11 - WHY DON'T YOU GET A JOB

My friend's got a girlfriend
Man he hates that bitch
He tells me every day
He says "Man I really gotta lose my chick
In the worst kind of way"

[Verse 2]
F
She sits on her ass
Bb
He works his hands to the bone
F                       C
To give her money every payday
F                                 Bb
But she wants more dinero just to stay at home
F                   C       F
Well my friend, you gotta say

[Chorus]
F                            Bb
I won't pay, I won't pay ya, No Way-ay-ay-ay
F                C             F
Na na, why don't you get a job?
F                          Bb
Say no way, say no way-ah, no way-ay-ay-ay
F                C             F
Na na, why don't you get a job?

[Verse 3]
F                              Bb
I guess all his money, well it isn't enough
F                              C
To keep her bill collectors at bay
F                              Bb
I guess all his money, well it isn't enough
F                     C              F
Cause that girl's got expensive taste

[Chorus]

[Break]
Bb
Well I guess it ain't easy
                 F
Doing nothing at alllllllll  ohhhh yeahhhh
Bb
But hey man free rides just don't
       G            C
Come along every day

(Let me tell you about my other friend now)

[Verse 4]
F
My friend's got a boyfriend
        Bb
Man she hates that dick
F                     C
She tells me every day
F                            Bb
He wants more dinero just to stay at home
F                   C        F
Well my friend, you gotta say

[Chorus](x2)

[Ending]
F                                Bb
I won't give you no money, I'll always pay
F                C             F
Na na, why don't you get a job?
F                          Bb
Say no way, say no way-ah, no way-ay-ay-ay
F                C              END on F
Na na, why don't you get a job?

TRACK 12 - AMERICANA
DROP D!!!
[Intro](played 8x by Guitar 1)
e|---------------||----------------||-----------------||----------------|
B|---------------||----------------||-----------------||----------------|
G|---------------||----------------||-----------------||----------------|
D|---------------||----------------||-----------------||----------------|
A|---------------||----------------||-----------------||----------------|
E|5*-------------||7b*-----------7-||-5-2-----------0-||-2-2------------|

back-up riff (guitar 2 plays this 4x after guitar 1 plays above 4x)
e|---------------||----------------||-----------------||----------------|
B|---------------||----------------||-----------------||----------------|
G|---------------||----------------||-----------------||----------------|
D|---------------||----------------||-----------------||----------------|
A|-5--5--5-5-5-5-||-7-7-7-7--7-7-7-||-5-2-2-2-2-2-2-0-||-2-2-2-5---0-2--|
E|-5--5--5-5-5-5-||-7-7-7-7--7-7-7-||-5-2-2-2-2-2-2-0-||-2-2-2-5---0-2--|
PM.....................................................................

well id like to tell you all about my dream....
e|----------------|
B|----------------|
G|----------------|
D|-2*-------------|
A|-2*-------------|
E|-2*-------------|

its a place...
e|---------------|
B|----------12/0-|
G|---------------|
D|---------------|
A|---------------|
E|---------------|

e|---------------------------||---------------------------|
B|---------------------------||---------------------------|
G|-9--7--9--12--12-14--14-12-||-9--7--9--12--12-14--14-12-|
D|-9--7--9--12--12-14--14-12-||-9--7--9--12--12-14--14-12-|
A|-7--5--7--10--10-12--12-10-||-7--5--7--10--10-12--12-10-|
E|---------------------------||---------------------------|
where strip malls abound and diversion's mere moments away...

e|----------------|
B|----------------|
G|----------------|
D|-2*-------------|
A|-2*-------------|
E|-2*-------------|

e|---------------------------||---------------------------|
B|---------------------------||---------------------------|
G|-9--7--9--12--12-14--14-12-||-9--7--9--12--12-14--14-12-|
D|-9--7--9--12--12-14--14-12-||-9--7--9--12--12-14--14-12-|
A|-7--5--7--10--10-12--12-10-||-7--5--7--10--10-12--12-10-|
E|---------------------------||---------------------------|

where culture's defined by the ones least refined...
e|---------------------||---------------------|
B|---------------------||---------------------|
G|---------------------||---------------------|
D|-2--2--2--2--2-2-2-2-||-5--5--5--5--5-5-5-5-|
A|-2--2--2--2--2-2-2-2-||-5--5--5--5--5-5-5-5-|
E|-2--2--2--2--2-2-2-2-||-5--5--5--5--5-5-5-5-|
PM............................................

and you?ll be left behind if you don?t fit in...
e|---------------------||------------------------|
B|---------------------||------------------------|
G|---------------------||-5--5--5--5--7--7--7--7-|
D|-7--7--7--7--7-7-7-7-||-5--5--5--5--7--7--7--7-|
A|-7--7--7--7--7-7-7-7-||-3--3--3--3--5--5--5--5-|
E|-7--7--7--7--7-7-7-7-||------------------------|
PM....................

it's all distorted in americana my way....
e|---------------------||---------------------|
B|---------------------||---------------------|
G|-9--9--9--9--9-9-9-9-||---------------------|
D|-9--9--9--9--9-9-9-9-||-9--9--9--9--9-9-9-9-|
A|-7--7--7--7--7-7-7-7-||-9--9--9--9--9-9-9-9-|
E|---------------------||-9--9--9--9--9-9-9-9-|

                                                well f**k you!...
e|---------------------------||---------------------------|
B|---------------------------||---------------------------|
G|-9--7--9--12--12-14--14-12-||-9-------------------------|
D|-9--7--9--12--12-14--14-12-||-9-------------------------|
A|-7--5--7--10--10-12--12-10-||-7-------------------------|
E|---------------------------||---------------------------|

whoa-oh-oh..                      whoa-oh-oh...
e|-----------------------------||-----------------------------|
B|-----------------------------||-----------------------------|
G|---------------7--7-7--7-7-7-||-9--9-9--9-9-9-4--4-5--5-5-5-|
D|-5--5-5--5-5-5-7--7-7--7-7-7-||-9--9-9--9-9-9-4--4-5--5-5-5-|
A|-5--5-5--5-5-5-5--5-5--5-5-5-||-7--7-7--7-7-7-2--2-3--3-3-3-|
E|-5--5-5--5-5-5---------------||-----------------------------|

whoa-oh-oh..                      well my dream has come true.. 
e|-----------------------------||-----------------------------|
B|-----------------------------||-----------------------------|
G|---------------7--7-7--7-7-7-||-9--9-9--9-9-9-7--7-9--9-9-9-|
D|-5--5-5--5-5-5-7--7-7--7-7-7-||-9--9-9--9-9-9-7--7-9--9-9-9-|
A|-5--5-5--5-5-5-5--5-5--5-5-5-||-7--7-7--7-7-7-5--5-7--7-7-7-|
E|-5--5-5--5-5-5---------------||-----------------------------|

whoa-oh-oh..                      whoa-oh-oh...
e|-----------------------------||-----------------------------|
B|-----------------------------||-----------------------------|
G|---------------7--7-7--7-7-7-||-9--9-9--9-9-9-4--4-5--5-5-5-|
D|-5--5-5--5-5-5-7--7-7--7-7-7-||-9--9-9--9-9-9-4--4-5--5-5-5-|
A|-5--5-5--5-5-5-5--5-5--5-5-5-||-7--7-7--7-7-7-2--2-3--3-3-3-|
E|-5--5-5--5-5-5---------------||-----------------------------|

  whoa-oh-oh..                    my vision has come true...
e|-----------------------------||-----------------------------|
B|-----------------------------||-----------------------------|
G|---------------7--7-7--7-7-7-||-9--9-9--9-9-9-7--7-9--9-9-9-|
D|-5--5-5--5-5-5-7--7-7--7-7-7-||-9--9-9--9-9-9-7--7-9--9-9-9-|
A|-5--5-5--5-5-5-5--5-5--5-5-5-||-7--7-7--7-7-7-5--5-7--7-7-7-|
E|-5--5-5--5-5-5---------------||-----------------------------|

 now give me my cable, fast food, four-by's, tat's right away
e|---------------------------||---------------------------|
B|---------------------------||----------------------12/0-|
G|-9-------------------------||---------------------------|
D|-9-------------------------||---------------------------|
A|-7-------------------------||---------------------------|
E|---------------------------||---------------------------|

e|---------------------------||---------------------------|
B|---------------------------||---------------------------|
G|-9--7--9--12--12-14--14-12-||-9--7--9--12--12-14--14-12-|
D|-9--7--9--12--12-14--14-12-||-9--7--9--12--12-14--14-12-|
A|-7--5--7--10--10-12--12-10-||-7--5--7--10--10-12--12-10-|
E|---------------------------||---------------------------|

i want it right now cause my generation don't like to wait...
e|----------------|
B|----------------|
G|----------------|
D|-2*-------------|
A|-2*-------------|
E|-2*-------------|

e|---------------------------||---------------------------|
B|---------------------------||---------------------------|
G|-9--7--9--12--12-14--14-12-||-9--7--9--12--12-14--14-12-|
D|-9--7--9--12--12-14--14-12-||-9--7--9--12--12-14--14-12-|
A|-7--5--7--10--10-12--12-10-||-7--5--7--10--10-12--12-10-|
E|---------------------------||---------------------------|

my future's determined by theives, thugs and vermin...
e|---------------------||---------------------|
B|---------------------||---------------------|
G|---------------------||---------------------|
D|-2--2--2--2--2-2-2-2-||-5--5--5--5--5-5-5-5-|
A|-2--2--2--2--2-2-2-2-||-5--5--5--5--5-5-5-5-|
E|-2--2--2--2--2-2-2-2-||-5--5--5--5--5-5-5-5-|
PM............................................

it's quite an excursion but it's okay...
e|---------------------||------------------------|
B|---------------------||------------------------|
G|---------------------||-5--5--5--5--7--7--7--7-|
D|-7--7--7--7--7-7-7-7-||-5--5--5--5--7--7--7--7-|
A|-7--7--7--7--7-7-7-7-||-3--3--3--3--5--5--5--5-|
E|-7--7--7--7--7-7-7-7-||------------------------|
PM....................

everything?s backwards in americana my way....
e|---------------------||---------------------|
B|---------------------||---------------------|
G|-9--9--9--9--9-9-9-9-||---------------------|
D|-9--9--9--9--9-9-9-9-||-9--9--9--9--9-9-9-9-|
A|-7--7--7--7--7-7-7-7-||-9--9--9--9--9-9-9-9-|
E|---------------------||-9--9--9--9--9-9-9-9-|

                                           well f**k you!...
e|---------------------------||---------------------------|
B|---------------------------||---------------------------|
G|-9--7--9--12--12-14--14-12-||-9-------------------------|
D|-9--7--9--12--12-14--14-12-||-9-------------------------|
A|-7--5--7--10--10-12--12-10-||-7-------------------------|
E|---------------------------||---------------------------|

whoa-oh-oh..                      whoa-oh-oh...
e|-----------------------------||-----------------------------|
B|-----------------------------||-----------------------------|
G|---------------7--7-7--7-7-7-||-9--9-9--9-9-9-4--4-5--5-5-5-|
D|-5--5-5--5-5-5-7--7-7--7-7-7-||-9--9-9--9-9-9-4--4-5--5-5-5-|
A|-5--5-5--5-5-5-5--5-5--5-5-5-||-7--7-7--7-7-7-2--2-3--3-3-3-|
E|-5--5-5--5-5-5---------------||-----------------------------|

whoa-oh-oh..                      well my dream has come true..
e|-----------------------------||-----------------------------|
B|-----------------------------||-----------------------------|
G|---------------7--7-7--7-7-7-||-9--9-9--9-9-9-7--7-9--9-9-9-|
D|-5--5-5--5-5-5-7--7-7--7-7-7-||-9--9-9--9-9-9-7--7-9--9-9-9-|
A|-5--5-5--5-5-5-5--5-5--5-5-5-||-7--7-7--7-7-7-5--5-7--7-7-7-|
E|-5--5-5--5-5-5---------------||-----------------------------|

whoa-oh-oh..                      whoa-oh-oh...
e|-----------------------------||-----------------------------|
B|-----------------------------||-----------------------------|
G|---------------7--7-7--7-7-7-||-9--9-9--9-9-9-4--4-5--5-5-5-|
D|-5--5-5--5-5-5-7--7-7--7-7-7-||-9--9-9--9-9-9-4--4-5--5-5-5-|
A|-5--5-5--5-5-5-5--5-5--5-5-5-||-7--7-7--7-7-7-2--2-3--3-3-3-|
E|-5--5-5--5-5-5---------------||-----------------------------|

   whoa-oh-oh..                   my vision has come true...
e|-----------------------------||-----------------------------|
B|-----------------------------||-----------------------------|
G|---------------7--7-7--7-7-7-||-9--9-9--9-9-9-7--7-9--9-9-9-|
D|-5--5-5--5-5-5-7--7-7--7-7-7-||-9--9-9--9-9-9-7--7-9--9-9-9-|
A|-5--5-5--5-5-5-5--5-5--5-5-5-||-7--7-7--7-7-7-5--5-7--7-7-7-|
E|-5--5-5--5-5-5---------------||-----------------------------|

  yeah, its all coming through...
e|-----------------------------------||------------------------------|
B|-----------------------------------||------------------------------|
G|-12--12-12--12-12-12-7--7-7--7-7-7-||-9--9-9--9-9-9--9--9-9--9-9-9-|
D|-12--12-12--12-12-12-7--7-7--7-7-7-||-9--9-9--9-9-9--9--9-9--9-9-9-|
A|-10--10-10--10-10-10-5--5-5--5-5-5-||-9--9-9--9-9-9--9--9-9--9-9-9-|
E|-----------------------------------||------------------------------|

       im a product...         of my enviroment...
e|---------------------------||---------------------------|
B|---------------------------||---------------------------|
G|-9-----------------------7-||-9-----------------------7-|
D|-9-----------------------7-||-9-----------------------7-|
A|-7-----------------------5-||-7-----------------------5-|
E|---------------------------||---------------------------|

      so dont blame me i just work here but i wanna...
e|---------------------------||---------------------------|
B|---------------------------||----------------------12/0-|
G|-9-------------------------||---------------------------|
D|-9-------------------------||---------------------------|
A|-7-------------------------||---------------------------|
E|---------------------------||---------------------------|

e|---------------------------||---------------------------|
B|---------------------------||---------------------------|
G|-9--7--9--12--12-14--14-12-||-9--7--9--12--12-14--14-12-|
D|-9--7--9--12--12-14--14-12-||-9--7--9--12--12-14--14-12-|
A|-7--5--7--10--10-12--12-10-||-7--5--7--10--10-12--12-10-|
E|---------------------------||---------------------------|

e|---------------------------||---------------------------|
B|---------------------------||---------------------------|
G|-9--7--9--12--12-14--14-12-||-9--7--9--12--12-14--14-12-|
D|-9--7--9--12--12-14--14-12-||-9--7--9--12--12-14--14-12-|
A|-7--5--7--10--10-12--12-10-||-7--5--7--10--10-12--12-10-|
E|---------------------------||---------------------------|

 my rights are denied by those least qualified...
e|---------------------||---------------------|
B|---------------------||---------------------|
G|---------------------||---------------------|
D|-2--2--2--2--2-2-2-2-||-5--5--5--5--5-5-5-5-|
A|-2--2--2--2--2-2-2-2-||-5--5--5--5--5-5-5-5-|
E|-2--2--2--2--2-2-2-2-||-5--5--5--5--5-5-5-5-|
PM............................................

trading profit fo pride but it's okay...
e|---------------------||------------------------|
B|---------------------||------------------------|
G|---------------------||-5--5--5--5--7--7--7--7-|
D|-7--7--7--7--7-7-7-7-||-5--5--5--5--7--7--7--7-|
A|-7--7--7--7--7-7-7-7-||-3--3--3--3--5--5--5--5-|
E|-7--7--7--7--7-7-7-7-||------------------------|
PM....................

everythings backwards in americana my way....
e|---------------------||---------------------|
B|---------------------||---------------------|
G|-9--9--9--9--9-9-9-9-||---------------------|
D|-9--9--9--9--9-9-9-9-||-9--9--9--9--9-9-9-9-|
A|-7--7--7--7--7-7-7-7-||-9--9--9--9--9-9-9-9-|
E|---------------------||-9--9--9--9--9-9-9-9-|

                                           well f**k you!...
e|---------------------------||---------------------------|
B|---------------------------||---------------------------|
G|-9--7--9--12--12-14--14-12-||-9-------------------------|
D|-9--7--9--12--12-14--14-12-||-9-------------------------|
A|-7--5--7--10--10-12--12-10-||-7-------------------------|
E|---------------------------||---------------------------|

whoa-oh-oh..                   whoa-oh-oh...
e|-----------------------------||-----------------------------------|
B|-----------------------------||-----------------------------------|
G|---------------8--8-8--8-8-8-||-10--10-10--10-10-10-5--5-6--6-6-6-|
D|-6--6-6--6-6-6-8--8-8--8-8-8-||-10--10-10--10-10-10-5--5-6--6-6-6-|
A|-6--6-6--6-6-6-6--6-6--6-6-6-||-8---8--8---8--8--8--3--3-4--4-4-4-|
E|-6--6-6--6-6-6---------------||-----------------------------------|

  whoa-oh-oh..                   well my dream has come true..
e|-----------------------------||---------------------------------------|
B|-----------------------------||---------------------------------------|
G|---------------8--8-8--8-8-8-||-10--10-10--10-10-10-8--8-10--10-10-10-|
D|-6--6-6--6-6-6-8--8-8--8-8-8-||-10--10-10--10-10-10-8--8-10--10-10-10-|
A|-6--6-6--6-6-6-6--6-6--6-6-6-||-8---8--8---8--8--8--6--6-8---8--8--8--|
E|-6--6-6--6-6-6---------------||---------------------------------------|

 whoa-oh-oh..                    whoa-oh-oh...
e|-----------------------------||-----------------------------------|
B|-----------------------------||-----------------------------------|
G|---------------8--8-8--8-8-8-||-10--10-10--10-10-10-5--5-6--6-6-6-|
D|-6--6-6--6-6-6-8--8-8--8-8-8-||-10--10-10--10-10-10-5--5-6--6-6-6-|
A|-6--6-6--6-6-6-6--6-6--6-6-6-||-8---8--8---8--8--8--3--3-4--4-4-4-|
E|-6--6-6--6-6-6---------------||-----------------------------------|

whoa-oh-oh..                   my nightmare has come true..
e|-----------------------------||---------------------------------------|
B|-----------------------------||---------------------------------------|
G|---------------8--8-8--8-8-8-||-10--10-10--10-10-10-8--8-10--10-10-10-|
D|-6--6-6--6-6-6-8--8-8--8-8-8-||-10--10-10--10-10-10-8--8-10--10-10-10-|
A|-6--6-6--6-6-6-6--6-6--6-6-6-||-8---8--8---8--8--8--6--6-8---8--8--8--|
E|-6--6-6--6-6-6---------------||---------------------------------------|

   yeah, it?s all coming true...
e|-----------------------------------||------------------------------------------|
B|-----------------------------------||------------------------------------------|
G|-13--13-13--13-13-13-8--8-8--8-8-8-||-10--10-10--10-10-10--10--10-10--10-10-10-|
D|-13--13-13--13-13-13-8--8-8--8-8-8-||-10--10-10--10-10-10--10--10-10--10-10-10-|
A|-11--11-11--11-11-11-6--6-6--6-6-6-||-8---8--8---8--8--8---8---8--8---8--8--8--|
E|-----------------------------------||------------------------------------------|

yeah, it?s all coming true...
e|-----------------------------------||------------------------------------------|
B|-----------------------------------||------------------------------------------|
G|-13--13-13--13-13-13-8--8-8--8-8-8-||-10--10--10--10--10--10-------------------|
D|-13--13-13--13-13-13-8--8-8--8-8-8-||-10--10--10--10--10--10-------------------|
A|-11--11-11--11-11-11-6--6-6--6-6-6-||-8---8---8---8---8---8--------------------|
E|-----------------------------------||------------------------------------------|

TRACK 13 - PAY THE MAN
[Intro 1](Guitar 1 w/clean tone & delay)
e|-----------------------------------------------------------------|
B|-----------------------------------------------------------------|
G|-9---10--14---13--7--7-/9--\4----9---10--14---13---13---13--/16--|
D|-x---x---x----x---x--x-/x--\x----x---x---x----x----x----x---/x---|
A|-7---8---12---11--5--5-/7--\2----7---8---12---11---11---11--/14--|
E|-0---0---0----0---0--0-/0--\0----0---0---0----0----0----0---/0---|

e|---------------------------------------------------------|
B|---------------------------------------------------------|
G|-9---10--14---13--7--7-/9--\4--------------------------4-|
D|-x---x---x----x---x--x-/x--\x--------------------------x-|
A|-7---8---12---11--5--5-/7--\2----0-----0-----0-----0---2-|
E|-0---0---0----0---0--0-/0--\0----0-----0-----0-----0---0-|

Drums enter and play for 7 bars
[Intro 2](Guitar 1 w/clean tone & delay)
e|-0---0---0--0--0--0----0--0--0--0---0----0------0--0----0--0--0--|
B|-0---0---0--0--0--0----0--0--0--0---0----0------0--0----0--0--0--|
G|-9---9---9--9--8--8//9-9--9--9--9---10---10\\9--9--9----9--9--7--|
D|-9---9---9--9--9--9----9--9--9--9---10---10\\9--9--9----9--9--7--|
A|-7---7---7--7--7--7----7--7--7--7---8----8 \\7--7--7----7--7--5--|
E|-0---0---0--0--0--0----0--0--0--0---0----0------0--0----0--0--0--|

e|-0-----0--0---0--0--0--0----0--0----0--0--0---0--0----0--0--0--0--0--|
B|-0-----0--0---0--0--0--0----0--0----0--0--0---0--0----0--0--0--0--0--|
G|-7//9--9--9---9--9--8--8//9-9--9----9--9--9---8--8//9-9--9--9--9--10-|
D|-7//9--9--9---9--9--9--9----9--9----9--9--9---9--9----9--9--9--9--10-|
A|-5//7--7--7---7--7--7--7----7--7----7--7--7---7--7----7--7--7--7--8--|
E|-0-----0--0---0--0--0--0----0--0----0--0--0---0--0----0--0--0--0--0--|

e|-0---0--0--0----0--0--0----0------0--0--0---0--0-|
B|-0---0--0--0----0--0--0----0------0--0--0---0--0-|
G|-10\\9--9--9----9--9--7----7//9---9--9--9---9--8-|
D|-10\\9--9--9----9--9--7----7//9---9--9--9---9--9-|
A|-8 \\7--7--7----7--7--5----5//7---7--7--7---7--7-|
E|-0------0--0----0--0--0----0------0--0--0---0--0-|

[Intro solo](guitar 2 w/slight dist.)
e|-10--8--7--5--4---4--5--5//7\\5--4--1--0---0//10--8--7--5--4---4--5-|
B|--------------------------------------------------------------------|
G|--------------------------------------------------------------------|
D|--------------------------------------------------------------------|
A|--------------------------------------------------------------------|
E|--------------------------------------------------------------------|

e|-5//7\\5--4--1--0---0--1--1//4--4--4--4---4--5--5//7--7--5--4--0--1-|
B|--------------------------------------------------------------------|
G|--------------------------------------------------------------------|
D|--------------------------------------------------------------------|
A|--------------------------------------------------------------------|
E|--------------------------------------------------------------------|

e|-1//4--4--4--4---4--5--5//7--7--5--4--4//--5//7--7--7--7---7---8----|
B|--------------------------------------------------------------------|
G|--------------------------------------------------------------------|
D|--------------------------------------------------------------------|
A|--------------------------------------------------------------------|
E|--------------------------------------------------------------------|

e|-8//10--10--12-12//13-12-10----10//12--10--8--7-7//8-7-5---4---4//5-|
B|--------------------------------------------------------------------|
G|--------------------------------------------------------------------|
D|--------------------------------------------------------------------|
A|--------------------------------------------------------------------|
E|--------------------------------------------------------------------|

e|-4---4--5--5//7--7--7--7---7--8--8//10--10--12-12//13-12-10--10//12-|
B|--------------------------------------------------------------------|
G|--------------------------------------------------------------------|
D|--------------------------------------------------------------------|
A|--------------------------------------------------------------------|
E|--------------------------------------------------------------------|

e|-10--8--7--7--7--7--7//12--12--12--12---12--12--12---12-12--12---12-|
B|--------------------------------------------------------------------|
G|--------------------------------------------------------------------|
D|--------------------------------------------------------------------|
A|--------------------------------------------------------------------|
E|--------------------------------------------------------------------|

e|-12---12--12--12--12---12--12--12---12--12--12---12--13--13//16--16-|
B|--------------------------------------------------------------------|
G|--------------------------------------------------------------------|
D|--------------------------------------------------------------------|
A|--------------------------------------------------------------------|
E|--------------------------------------------------------------------|

e|-16--16---16\\13---12---12-12//13--12---12--13---13//16--16--16--16-|
B|--------------------------------------------------------------------|
G|--------------------------------------------------------------------|
D|--------------------------------------------------------------------|
A|--------------------------------------------------------------------|
E|--------------------------------------------------------------------|

e|-16\\13--12---12-12//13--12---12--13--13//16--16--16--16---16\\13---|
B|--------------------------------------------------------------------|
G|--------------------------------------------------------------------|
D|--------------------------------------------------------------------|
A|--------------------------------------------------------------------|
E|--------------------------------------------------------------------|

e|-12---12-12//13-12--12--13---13//16--16--16--16---16\\13---12---12--|
B|--------------------------------------------------------------------|
G|--------------------------------------------------------------------|
D|--------------------------------------------------------------------|
A|--------------------------------------------------------------------|
E|--------------------------------------------------------------------|

e|-12//13--12--10--8--7--5-----------|
B|-----------------------------------|
G|-----------------------------------|
D|-----------------------------------|
A|-----------------------------------|
E|-----------------------------------|

[Solo Interlude](guitar 1 w/heavy dist.)
e|----------------------------------------------------------|
B|----------------------------------------------------------|
G|------------------10----10------10\\0---------------------|
D|--7-----7----x----10----10------10\\0----2-------------2--|
A|--7-----7----x----8-----8-------8 \\0----2-------------2--|
E|--5-----5----x---------------------------0-------------0--|

(guitar 2 w/slight dist.)
e|-5---5--5-7//8\\7--5--4--1---1--4-4//5\\4--1--0--0----0----0---12---|
B|--------------------------------------------------------------------|
G|--------------------------------------------------------------------|
D|--------------------------------------------------------------------|
A|--------------------------------------------------------------------|
E|--------------------------------------------------------------------|

e|-12---12//13-12---10--8--7---5---5-7//8\\7--5--4--1--1--4---4//5\\4-|
B|--------------------------------------------------------------------|
G|--------------------------------------------------------------------|
D|--------------------------------------------------------------------|
A|--------------------------------------------------------------------|
E|--------------------------------------------------------------------|

e|-1--0-----0--------|
B|-------------------|
G|-------------------|
D|-------------------|
A|-------------------|
E|-------------------|

Guitar 1 then plays Intro 2 throught once.][

Verses (guitar 1 keeps playing Intro 2 quietly in the background while
        guitar 2 plays this)

e|--------------------------------------------------------------------|
B|--------------------------------------------------------------------|
G|--9----10---14---13----10-----9---------9-----10--9-----7-----7//9--|
D|--x----x----x----x-----x------x---------x-----x---x-----x-----x//x--|
A|--7----8----12---11----8------7---------7-----8---7-----5-----5//7--|
E|--------------------------------------------------------------------|
  'See  the   way  the  wind  blows,    lives  are  in - ter - twined

e|--------------------------------------------------------------------|
B|--------------------------------------------------------------------|
G|--9----10---14---13----10-----9---------9-----10--9-----7-----7//9--|
D|--x----x----x----x-----x------x---------x-----x---x-----x-----x//x--|
A|--7----8----12---11----8------7---------7-----8---7-----5-----5//7--|
E|--------------------------------------------------------------------|
  Watch  the  way  the  world  goes the  man  deals out  our   plight'

e|--------------------------------------------------------------------|
B|--------------------------------------------------------------------|
G|--16----16----16---14----10-----10-----12-----14-----12--10--10//9--|
D|--x-----x-----x----x-----x------x------x------x------x---x---x //x--|
A|--14----14----14---12----8------8------10-----12-----10--8---8 //7--|
E|--------------------------------------------------------------------|
  'Jest - er    in  the   corn - er    laughs  with - out  a  sound

e|--------------------------------------------------------------------|
B|--------------------------------------------------------------------|
G|--16----16----16---14----10-----10-----12-----14-----12--10--10//9--|
D|--x-----x-----x----x-----x------x------x------x------x---x---x //x--|
A|--14----14----14---12----8------8------10-----12-----10--8---8 //7--|
E|--------------------------------------------------------------------|
   Jest - er    in  the   corn - er      mal  - a  -  dy  a  - bounds'

pChorus[(Guitar 1 w/clean tone)
e|-0---0--0--0---0--0---0----0---0---0----0---0----0---0--0--0---0--0--0--|
B|-0---0--0--0---0--0---0----0---0---0----0---0----0---0--0--0---0--0--0--|
G|-7---7--7--7---7--7---10---10--10--10---10--10---9---9--9--9---9--9--9--|
D|-7---7--7--7---7--7---10---10--10--10---10--10---9---9--9--9---9--9--9--|
A|-5---5--5--5---5--5---8----8---8---8----8---8----7---7--7--7---7--7--7--|
E|-------------------------------------------------0---0--0--0---0--0--0--|

e|-0--0---0--|
B|-0--0---0--|
G|-9--9---9--|
D|-9--9---9--|
A|-7--7---7--|
E|-0--0---0--|

(Guitar 2 w/slight dist.)
e|---------------------------------------------------------------------------|
B|---------------------------------------------------------------------------|
G|-7---7--7--7---7--7---14---14--14--14---14--14---13---13--13--13---13--13--|
D|-x---x--x--x---x--x---x----x---x---x----x---x----x----x---x---x----x---x---|
A|-5---5--5--5---5--5---12---12--12--12---12--12---11---11--11--11---11--11--|
E|---------------------------------------------------------------------------|

e|--------------|
B|--------------|
G|-9--9--9---9--|
D|-x--x--x---x--|
A|-7--7--7---7--|
E|--------------|

(Then go back to the verse and play the chorus)

[Half-Time Feel](Guitar 3 w/clean tone)
e|-----------------------------------------------------------------------|
B|-----------------------------------------------------------------------|
G|-7--9--9--------9--9--7--7--9--9--5---5--5--7--9--9--------9--9--7--7--|
D|-7--9--9--------9--9--7--7--9--9--5---5--5--7--9--9--------9--9--7--7--|
A|-5--7--7--------7--7--5--5--7--7--3---3--3--5--7--7--------7--7--5--5--|
E|----------0--0---------------------------------------0--0--------------|
                   (Guitar 2 w/dist.)

e|----------------|                  e|----------------|
B|----------------|                  B|----------------|
G|-9--9--14---13--|                  G|----------------|
D|-9--9--14---13--|                  D|-2--------------|
A|-7--7--12---11--|                  A|-2--let ring----|
E|----------------|                  E|-0--------------|

(The guitars 1, 2 & 3 play the above riff w/dist. them palm muted)

[Chorus](guitar 1 w/dist.)
e|--------------------------------------------------------------------------|
B|--------------------------------------------------------------------------|
G|-7---7---x--x---5---5---5---x---4---4--x----------------------------------|
D|-7---7---x--x---5---5---5---x---4---4--x--2--2--2---2--2--2---2--2--2--2--|
A|-5---5---x--x---3---3---3---x---2---2--x--2--2--2---2--2--2---2--2--2--2--|
E|------------------------------------------0--0--0---0--0--0---0--0--0--0--|

(guitar 4 w/clean tone & guitar 5 acoustic)
e|------------------------------------------0--0--0---0--0--0---0--0--0--0--|
B|-7---7---x--x---5---5---5---x---5---5--x--0--0--0---0--0--0---0--0--0--0--|
G|-7---7---x--x---5---5---5---x---4---4--x--0--0--0---0--0--0---0--0--0--0--|
D|-7---7---x--x---5---5---5---x---4---4--x--2--2--2---2--2--2---2--2--2--2--|
A|-5---5---x--x---3---3---3---x---2---2--x--2--2--2---2--2--2---2--2--2--2--|
E|------------------------------------------0--0--0---0--0--0---0--0--0--0--|

************************************

| x    Dead note
| /    Slide up
| \    Slide down
| b    Bend
| (n)  Ghost note
| r    Release
| ~    Vibrato
| *    Natural harmonic
| PM   Palm mute

************************************
Suggest correction
comments
print report bad tab
10 comments total. Showing first comments.
+1 reply
feesk8ordie 1,082 Feb 08, 2005 07:00 PM

u used my f***ing tab without crediting me u piece of sh** at least either ask or put my name on it.

oh yeah im making a complaint to the site and getting them to take the tab down as i bet none of its ur work

+1 reply
2020vision 2,010 Feb 08, 2005 07:00 PM

also, unless its just the way i figured it out, the pay the man solo is horribly.. in the wrong place. (try the B and G strings)

0 reply
feesk8ordie 1,082 Feb 09, 2005 07:00 PM

isnt it funny how all the tabs look as though theyve all been done by different people?

guest
You may want to rate the tab now too:
select rating
Wanna post a correction for this tab? Suggest correction