Oops, an error
Loading. Please wait.

Americana Bass Tab

version 1
version 1

Album

Whole song

928 views 1 this week
5 commentsread comments
1 2 3 4 5
worth learning
x 5
add to favorites
launch autoscroll
font size
0
reset
guitar tuner
Tab Pro tools
  • play this tab
  • loop segment
  • change instrument
  • show fretboard
  • metronome
Autoscroll
slow
fast
+/-
esc
set tempo
stop
Contributor
Intro
G|---------------------|
D|---------------------|
A|---------------------|
E|-4---6---6-4-0--0/11-|

Verses I
G|-------------|
D|---------8-6-|
A|-8---6-8-----|
E|---6---------|

Verse II
G|----------------------------------------------|
D|-33333----------------------1111-33333--------|
A|---------------11111-44444-------------33333--|
E|---------44444--------------------------------|

Chorus
G|------------------------------------|
D|------------------------------------|
A|----66-88--88-6-4----6-8--88/6/8888-|
E|-44----------------44---------------|

Last Chorus
G|-----------------------------------|
D|-----------------------------------|
A|----77--99-99-7-5---7-9--7/999/7/8-|
E|-55---------------44---------------|
comments
print report bad tab
5 comments total. Showing first comments.
0 reply
AVA_182_44 wrote on March 12 2006, 05:12 pm

good job, but im pretty sure its supposed to be in drop d... here's what the intro should look like

g|-----------------------|
d|-----------------------|
a|-----------------------|
D|-5---7---7-5-2---0h22--|

0 reply
AVA_182_44 wrote on March 12 2006, 05:13 pm

drop d

-1 reply
Alunys wrote on February 5 2007, 12:34 pm

Even worse than the other two wrong Americana tabs. Try listening to the song again.

I want to post or [tab]
guest
You may want to rate the tab now too:
select rating
Please do not post tabs as comments. Select "correction" instead!