Oops, an error
Loading. Please wait.

Americana Bass Tab

version 2
version 2

Album

Whole song

6,979 views 33 this week
1 commentread comment
1 2 3 4 5
excellent!
x 5
add to favorites
launch autoscroll
font size
0
reset
guitar tuner
Tab Pro tools
  • play this tab
  • loop segment
  • change instrument
  • show fretboard
  • metronome
Autoscroll
slow
fast
+/-
esc
set tempo
stop
Contributor
Tuning
Tabbers playing skills
D A D G B E
intermediate
Band: The Offspring
Song: Americana
Album: Americana
Track: 12
Year: 1998

Drop D tuning

Intro-come in at 0:27
G|---------------------------------------|
D|---------------------------------------|
A|---------------------------------------| x6
D|-55555555-77777777-5-222222-0-22222222-|

Verse
G|-------------------------------|
D|-------------5-7-5-------5-7-5-|
A|-------7-5-7-------7-5-7-------| x2
D|-2~----------------------------|

G|---------------------------------------------------------------|
D|----------------------------------------------------------575--|
A|----------------------------33335555-77777777----------757---7-|
D|-22222222-55555555-77777777-------------------99999999---------|

Chorus
G|-----------------------------------------|
D|-----------------------------------------|
A|------5555-7777-2333------5555-7777-5777-| x2
D|-5555----------------5555----------------|

Verse 2
G|-------------------------------|
D|-------------5-7-5-------5-7-5-|
A|-------7-5-7-------7-5-7-------| x2
D|-2~----------------------------|

G|---------------------------------------------------------------|
D|----------------------------------------------------------575--|
A|----------------------------33335555-77777777----------757---7-|
D|-22222222-55555555-77777777-------------------99999999---------|

Chorus 2
G|-----------------------------------------|
D|-----------------------------------------|
A|------5555-7777-2333------5555-7777-5577-| x2
D|-5555----------------5555----------------|

Break
G|-----------------------------------------------------|
D|-5555--------------------------575---575---575---575-|
A|------5555-77777777-7-57-57-757---757---757---757----|
D|-----------------------------------------------------|

Verse 3
G|---------------------------------------------------------------|
D|----------------------------------------------------------575--|
A|----------------------------33335555-77777777----------757---7-|
D|-22222222-55555555-77777777-------------------99999999---------|

Chorus 3
G|-----------------------------------------|
D|-----------------------------------------|
A|------6666-8888-3444------6666-8888-6688-| x2
D|-6666----------------6666----------------|

Outro
G|-------------------------------------|
D|-6666---------------6666-------------|
A|------6666-88888888------6666-888888-|
D|-------------------------------------|
comments
print report bad tab
1 comment total.
0 reply
telenofunken wrote on October 27 2013, 07:16 pm

Intro-come in at 0:27
G|---------------------------------------|
D|---------------------------------------|
A|---------------------------------------| x6
D|-55555555-77777777-5-222222-"0"-22222222-|

for that ****ing note i need to tune in Drop D
Greg K Mother****er

I want to post or [tab]
guest
You may want to rate the tab now too:
select rating
Please do not post tabs as comments. Select "correction" instead!