Oops, an error
Loading. Please wait.

Americana Tab

version 3
version 3

Album

Whole song

1,344 views 1 this week
no commentswrite comment
1 2 3 4 5
accurate
x 3
add to favorites
launch autoscroll
font size
0
reset
how to read this tab
guitar tuner
Tab Pro tools
  • play this tab
  • loop segment
  • change instrument
  • show fretboard
  • metronome
Autoscroll
slow
fast
+/-
esc
set tempo
stop
Contributor
Album: Americana
Year: 1998
Track: 12
Title: Americana

tabbed by j.d.sutcliff@talk21.com using bucket'o'tab v2.5

        intro                      verse                                
E---||--------------------------||----------------|---------------------
B---||--------------------------||----------------|---------------------
G---||*------------------------*||----------------|---------------------
D---||*------------------------*||-9-7-9-12-14-12-|---------------------
A---||--------------------------||-7-5-7-10-12-10-|---------------------
E---||--3---5^---3-0-0---0-0-0--||----------------|---------------------
                                8x                                        

                                                                        
E--------------------|----------------|----------------|----------------
B--------------------|----------------|----------------|----------------
G--------------------|----------------|----------------|----------------
D---9-7-9-12-14-12-2-|-9-7-9-12-14-12-|-9-7-9-12-14-12-|----------------
A---7-5-7-10-12-10-2-|-7-5-7-10-12-10-|-7-5-7-10-12-10-|----------------
E------------------0-|----------------|----------------|----------------
                                                                        

                                                                        
E-----------------------------------------------------|-----------------
B-----------------------------------------------------|-----------------
G-----------------------------------------------------|-----------------
D---2-2-2-2-2-2-2-2-----------------------------------|-----------------
A---2-2-2-2-2-2-2-2-5-5-5-5-5-5-5-5-5-7-7-7-7-7-7-7-7-|-----------------
E---0-0-0-0-0-0-0-0-3-3-3-3-3-3-3-3-3-5-5-5-5-5-5-5-5-|-----------------
                                                                        

                                                                        
E-------------------------------------------|---------------------------
B-------------------------------------------|---------------------------
G-------------------------------------------|---------------------------
D---5-5-5-5-5-5-7-7-7-7-7-7-9-9-9-9-9-9-9-9-|---------------------------
A---3-3-3-3-3-3-5-5-5-5-5-5-7-7-7-7-7-7-7-7-|---------------------------
E-------------------------------------------|---------------------------
                                                                        

                                        chorus                          
E------------------------------------||-------------------------|-------
B------------------------------------||-------------------------|-------
G------------------------------------||-------------------------|-------
D-------------------9-7-9-12-14-12-9-||---------7-7-7-7-9-9-9-9-|-------
A---9-9-9-9-9-9-9-9-7-5-7-10-12-10-7-||-5-5-5-5-5-5-5-5-7-7-7-7-|-------
E---7-7-7-7-7-7-7-7------------------||-3-3-3-3-----------------|-------
                                                                        

                                                                        
E-------------|-----------------------------------||--------------------
B-------------|-----------------------------------||--------------------
G-------------|-----------------------------------||--------------------
D---4-5-5-5-5-|---------7-7-7-7-9-9-9-9-7-9-9-9-9-||--------------------
A---2-3-3-3-3-|-5-5-5-5-5-5-5-5-7-7-7-7-5-7-7-7-7-||--------------------
E-------------|-3-3-3-3---------------------------||--------------------
                                                                        

    rythym fill 1                                                       
E-----------------------------------------------||----------------------
B-----------------------------------------------||----------------------
G-----------------------------------------------||----------------------
D---12-12-12-12-7-7-7-7-9-9-9-9---9---7-9---7-9-||----------------------
A---10-10-10-10-5-5-5-5-7-7-7-7---7---5-7---5-7-||----------------------
E-----------------------------------------------||----------------------
                                                                        

    chorus 3                                                            
E---------------------------------|-------------------------|-----------
B---------------------------------|-------------------------|-----------
G---------------------------------|-------------------------|-----------
D-----------8-8-8-8-10-10-10-10-5-|-6-6-6-6---------8-8-8-8-|-----------
A---6-6-6-6-6-6-6-6-8--8--8--8--3-|-4-4-4-4-6-6-6-6-6-6-6-6-|-----------
E---4-4-4-4-----------------------|---------4-4-4-4---------|-----------
                                                                        

                                                                        
E-----------------------------------------------------------------------
B-----------------------------------------------------------------------
G-----------------------------------------------------------------------
D---10-10-10-10-8-10-10-10-10-------------------------------------------
A---8--8--8--8--6-8--8--8--8--------------------------------------------
E-----------------------------------------------------------------------
                                                                        

                                                     2x                 
E---||-----------------------------------------------||-----------------
B---||-----------------------------------------------||-----------------
G---||*---------------------------------------------*||-----------------
D---||*-13-13-13-13-8-8-8-8-10-10-10-10-10-10-10-10-*||-----------------
A---||--11-11-11-11-6-6-6-6-8--8--8--8--8--8--8--8---||-----------------
E---||-----------------------------------------------||-----------------
comments
We did not receive enough feedback on this tab! Please rate:
print report bad tab
1 2 3 4 5
I want to post or [tab]
guest
You may want to rate the tab now too:
select rating
Please do not post tabs as comments. Select "correction" instead!