Oops, an error
Loading. Please wait.

Autonomy Bass Tab

version 1
version 1

Whole song

Interactive

77 views 1 this week
no commentswrite comment
1 2 3 4 5
please rate
add to favorites
launch autoscroll
font size
0
reset
guitar tuner
Tab Pro tools
  • play this tab
  • loop segment
  • change instrument
  • show fretboard
  • metronome
×
Best way to learn
"Autonomy"
Autoscroll
slow
fast
+/-
esc
set tempo
stop
Contributor
+++++++++++++++++++++++++++
| The Offspring- Autonomy |
+++++++++++++++++++++++++++



"I, I want you..."


Tuning: EADG



Intro
1.
G|-----------------------------------------|
D|-44~-------44~-------44~-------44~-------|
A|-----------------------------------------|
E|-----22222-----22222-----22222-----22222-|

2.
G|-------------------------------------------------------------------|
D|--4~--------------4~--------------4~--------------4~---------------|
A|-4---------------4---------------4---------------4---------------4-|
E|-----222-222-222-----222-222-222-----222-222-222-----222-222-222---|

3.
G|--------------------------------------|
D|-4-4-4-4--4-4-4-4--4-4-4-4--4-4-4-4---|
A|---------4--------4--------4--------4-|
E|--------------------------------------|

Verse
"Its a thing that's worth having..."
4.
G|----------4-3-------------------4-3----------|
D|--------------6-4~-44---------------6-4~-44--|
A|---------------------4---------------------4-|
E|-22222222--------------22222222--------------|

5.
G|--------------------------------------|
D|-4-4-4-4--4-4-4-4--4-4-4-4--4-4-4-4---|
A|---------4--------4--------4--------4-|
E|--------------------------------------|

6.
G|---------------------|
D|----------3h44444444-|
A|---------------------|
E|-22222222------------|

Chorus
"I, I want you, autonomy..."
7.
G|------------------------------------------------------------------------------------|
D|-----------------------------------------------4~--------4~---------4~--------4~----|
A|------5~--------5~---------7~--------7~---2~-22---2~-2222---2~-2~-22---2~-2222---2~-|
E|-3~-33---3~-3333---3~-5~-55---5~-5555---5-------------------------------------------|

Outro
8.
G|--------------------------------------|
D|-4-4-4-4--4-4-4-4--4-4-4-4--4-4-4-4---|
A|---------4--------4--------4--------4-|
E|--------------------------------------|

Verse
"It leaves us all wondering..."
9.
G|----------4-3-------------------4-3----------|
D|--------------6-4~-44---------------6-4~-44--|
A|---------------------4---------------------4-|
E|-22222222--------------22222222--------------|

10.
G|--------------------------------------|
D|-4-4-4-4--4-4-4-4--4-4-4-4--4-4-4-4---|
A|---------4--------4--------4--------4-|
E|--------------------------------------|

11.
G|---------------------|
D|----------3h44444444-|
A|---------------------|
E|-22222222------------|

Chorus
"I, I want you, autonomy..."
12.
G|------------------------------------------------------------------------------------|
D|-----------------------------------------------4~--------4~---------4~--------4~----|
A|------5~--------5~---------7~--------7~---2~-22---2~-2222---2~-2~-22---2~-2222---2~-|--x2
E|-3~-33---3~-3333---3~-5~-55---5~-5555---5-------------------------------------------|

Outro
13.
G|-----------------------------------------4~-44-34--4~-44-34--4~-44-34--4~-44-34--|
D|-5~-55-45--5~-55-45--7~-77-67--7~-77-67-------4--4------4--4------4--4------4--4-|
A|------5--5------5--5------7--7------7--7-----------------------------------------|
E|---------------------------------------------------------------------------------|

14.
G|----------------------------------------------11~--------11~---------11~--------11~----|
D|-5~-55-45--5~-55-45--7~-77-67--7~-77-67--9~-99----9~-9999----9~-9~-99----9~-9999----9~-|
A|------5--5------5--5------7--7------7--7-----------------------------------------------|
E|---------------------------------------------------------------------------------------|

(slowing down)
15.
G|------------------------------------------------------------------------------------|
D|-----------------------------------------------4~--------4~-------------------------|
A|------5~--------5~---------7~--------7~---2~-22---2~-2222---2~-2~-------------------|
E|-3~-33---3~-3333---3~-5~-55---5~-5555---5-------------------------------------------|

Please rate thanks!!


Lyrics:

It's a thing that's worth having
Yes I would
Buys you your life sir
If it could

I, I want you
Autonomy 

It leaves us all wondering
And it should
This awkward something
For the good



+++++++++++++++++++++++++++++++++
| Raileff                       |
| Underground__Dora@Hotmail.Com |
+++++++++++++++++++++++++++++++++
comments
We did not receive enough feedback on this tab! Please rate:
print report bad tab
1 2 3 4 5
I want to post or [tab]
guest
You may want to rate the tab now too:
select rating
Please do not post tabs as comments. Select "correction" instead!