Oops, an error
Loading. Please wait.

Bad Habit Bass Tab

version 1
version 1

Whole song

Interactive

19,325 views 63 this week
6 commentsread comments
1 2 3 4 5
worth learning
x 9
add to favorites
launch autoscroll
font size
0
reset
guitar tuner
Tab Pro tools
  • play this tab
  • loop segment
  • change instrument
  • show fretboard
  • metronome
×
Best way to learn
"Bad Habit"
Autoscroll
slow
fast
+/-
esc
set tempo
stop
Contributor
Song: Bad Habit
Artist: The Offspring
Album: Smash
Tabbed By: SeepZ (hypercobra69@hotmail.com)
Tuning: Standard

I'm pretty sure this tab is perfect, may have missed a note or 2, but hey, its all the same to me...


INTRO 1

G-----2---------------------------------------------------------------------
D---------------------------------------------------------------------------
A---0-----------------------------------------------------------------------
E-3-----3h5-5---------------------------------------------------------------

INTRO 2

G---------------------------------------------------------------------------
D-----2---4-----------------------------------------------------------------
A---------------------------------------------------------------------------
E-0-3---2-------------------------------------------------------------------

PRE-VERSE

G---------------------------------------------------------------------------
D---------------------------------------------------------------------------
A-0~-000~-00----------------------------------------------------------------
E---------------------------------------------------------------------------

VERSE

G---------------------------------------------------------------------------
D---------------------------------------------------------------------------
A-035-432-030-000-----------------------------------------------------------
E---------------------------------------------------------------------------

PRE-CHORUS

G---------------------------------------------------------------------------
D---------------------------------------------------------------------------
A-3333333333333333-55555555-77777777----------------------------------------
E---------------------------------------------------------------------------

CHORUS

G---------------------------------------------------------------------------
D----23---------------------------------------------------------------------
A-00----335-555-7777--------------------------------------------------------
E---------------------------------------------------------------------------

BRIDGE

G---------------------------------------------------------------------------
D-77-6-55-210---------------------------------------------------------------
A-------------320-----------------------------------------------------------
E---------------------------------------------------------------------------

STRUCTURE:

INTRO 1 x6
INTRO 2 X1
PREVERSE X1
VERSE X2
PRE-CHORUS X1
CHORUS X6
PRE-VERSE X1
VERSE X2
PRE-CHORUS X1
CHORUS X6
BRIDGE X4
PRE-CHORUS X1
CHORUS X8
comments
print report bad tab
6 comments total. Showing first comments.
0 reply
Alien_from_a_cd wrote on November 24 2004, 12:00 am

Dude, this song in on smash, not ixnay on the hombre!!!
Apart from that, pretty decent tab.

0 reply
Alien_from_a_cd wrote on November 24 2004, 12:00 am

Dude, this song in on smash, not ixnay on the hombre!!!
Apart from that, pretty decent tab.

0 reply
Alien_from_a_cd wrote on July 21 2005, 12:00 am

One correction: At the end of the intro, it goes like this:
G|------------|
D|-----5----2-|
A|------------|
E|-0-3----0---|

I want to post or [tab]
guest
You may want to rate the tab now too:
select rating
Please do not post tabs as comments. Select "correction" instead!