Oops, an error
Loading. Please wait.
We have an official Bad Habit tab made by UG professional guitarists. Check out the tab »
×
49,112 views 39 this week
3 commentsread comments
1 2 3 4 5
x 13
add to favorites
×
Save as Personal and add changes to this tab that will be seen only by you. Learn more ›
×
You can save this tab as Personal to edit and correct it or add notes. All changes will be seen only by you. Learn more »
launch autoscroll
font size
0
reset
how to read this tab
guitar tuner
backing track
0:00
0:00
edit
Autoscroll
slow
fast
+/-
esc
set tempo
stop
Author
Unregistered
"Bad Habit"
by Offspring
off the album, Smash

[Intro]
e|---------------------------------|
B|---------------------------------|
G|-2----x-x-x-2-----x-x-x-2--------|
D|-2----x-x-x-2-----x-x-x-2--------|
A|-0----x-x-x-0-----x-x-x-0--------|
E|---------------------------------|

[verse](play twice)
e|-----------------------------------------------------------------|
B|-----------------------------------------------------------------|
G|-2--x-5---x-7-5-7-5---2--x-5----x-2-2-2--------------------------|
D|-2--x-5---x-7-5-7-5---2--x-5----x-2-2-2-let ring-----------------|
A|-0--x-3---x-5-3-5-3---0--x-3----x-0-0-0----------then pick slide-|
E|-----------------------------------------------------------------|

[rhythm 1]
e|-------------------------------------------|
B|-------------------------------------------|
G|-------------------------------------------|
D|-5---------5---------5---------5-----------|
A|-5---------5---------5---------5-----------|
E|-3-3-3-3-3-3-3-3-3-3-3-3-3-3-3-3-3-3-3-3---|

e|------------------------------------------|
B|------------------------------------------|
G|-9---------9---------9---------9----------|
D|-9---------9---------9---------9----------|
A|-7-7-7-7-7-7-7-7-7-7-7-7-7-7-7-7-7-7-7-7--|
E|------------------------------------------|

(play 4X)
e|---------------------------------|
B|---------------------------------|
G|-2---x-9-10----5----7-7---9-9----|
D|-2---x-9-10----5----7-7---9-9----|
A|-0---x-7--8----3----5-5---7-7----|
E|---------------------------------|

[rhythm 2]                                        (end 1)
e|------------------------------------------------------|
B|------------------------------------------------------|
G|-2-----------------x-10-10----7-----------------x-9-9-|
D|-2-----------------x-10-10----7-----------------x-9-9-|
A|-0-0-0-0-0-0-0-0-0-x--8--8----5-5-5-5-5-5-5-5-5-x-7-7-|
E|------------------------------------------------------|

(end 2)
e|-------------------------------------------|
B|-------------------------------------------|
G|-x-9-9-9-9-9-9-9-9------2------------------|
D|-x-9-9-9-9-9-9-9-9------2--then pick slide-|
A|-x-7-7-7-7-7-7-7-7------0------------------|
E|-------------------------------------------|

[repeat verse]
[repeat rhythm 1]
[repeat chorus]
[repeat rhythm 2]
[rhythm 3]
e|--------------------------------------------|
B|--------------------------------------------|
G|------------------------------------7--5--2-|
D|------------------------------------7--5--2-|
A|-19-19-19-19-18-17-17-17-17--14-13--5--3--0-|
E|-17-17-17-17-16-15-15-15-15--12-11----------|

[repeat rhythm 1]
[repeat chorus]
[repeat rhythm 2]

************************************

| x  Dead note
| let ring 
| then pick slide 

************************************

            
            
Suggest correction
Creating personal tab
Creating personal tab
You can edit any tab online and save it as your Personal.

You can edit, replace or remove any tab part or add personal notes – all changes will be seen only by you.

Personal tabs can be accessed anytime from any device, even offline.
Learn more »
comments
print report bad tab
3 comments total.
0 reply
Benj588 10 Apr 09, 2002 08:00 PM

Hey, Zack.

0 reply
bman2002 0 Aug 26, 2002 08:00 PM

good, except your rhythm 3 is wrong, it should be
on the d string, 7,6,5. except add power chords, that is followed by 7,6,5 on the a string, then the d chord then c chord then a chord. hope this is understandable, im too lazy to be a member and stuff, so email me if you want the tab for any offspring song

0 reply
A7XDUDE 10 May 19, 2006 06:44 PM

nice man

guest
Wanna post a correction for this tab? Suggest correction