Oops, an error
Loading. Please wait.

Bad Habit Tab

version 2
version 2

Whole song

Interactive

8,997 views 18 this week
no commentswrite comment
1 2 3 4 5
accurate
x 11
add to favorites
launch autoscroll
font size
0
reset
how to read this tab
guitar tuner
Tab Pro tools
  • play this tab
  • loop segment
  • change instrument
  • show fretboard
  • metronome
×
Best way to learn
"Bad Habit"
Autoscroll
slow
fast
+/-
esc
set tempo
stop
Contributor
Intro:

Noise, feedback.

Fill:
Dexter goes OHHHHHHHHHHHHHHHH!!!!

e:|------------------------------------------------------------------
B:|------------------------------------------------------------------
G:|------------------------------------------------------------------
D:|---7--------------7--7--7-----------------------------------------
A:|---7-:::----------7--7--7--:::------------------------------------
E:|---5--------------5--5--5-----------------------------------------

VERSE:

e:|------------------------------------------------------------------
B:|------------------------------------------------------------------
G:|---------5--5-7---7-5--------------5--5---------------------------
D:|-----7-7-5--5-7---7-5--7--5--7--7--5--5--7-7--7--7--7-------------
A:|-13\-7-7-3--3-5---5-3--7--5--7--7--3--3--7-7--7--7--7-------------
E:|-----5-5---------------5--3--5--5--------5-5--5--5--5-------------

PRECHORUS:

e:|------------------------------------------------------------------
B:|------------------------------------------------------------------
G:|------------------------------9-----------------------------------
D:|---5---------------PLAY 4X----9-----------------------------------
A:|---5--------------------------7--=7-7-7-7-7-7---------------------
E:|---3---3-3-3-3-3-3--------------------0-0-------------------------
PM        ***********

CHORUS
PLAY 3X 
e:|------------------------------------------------------------------
B:|------------------------------------------------------------------
G:|--------9----10\-5--7--7--7--7--7-9--9--9--9----------------------
D:|--7--7--9----10\-5--7--7--7--5--5-9--9--9--9----------------------
A:|--7--7--7--X--8\-3--5--5--5--5--5-7--7--7--7----------------------
E:|--5--5------------------------------------------------------------
THEN...
e:|-------------------------------------------------------------------
B:|-------------------------------------------------------------------
G:|-----------------10--10-10-10--7------------9--9-9-9-9-9-9-9-9-9-9-
D:|-7-----------7-/-10--10-10-10--7------------9--9-9-9-9-9-9-9-9-9-9-
A:|-7-----------7-/--8---8--8--8--5--5-5-5-5-5-7--7-7-7-7-7-7-7-7-7-7-
E:|-5--5-5-5-5--5-/---------------------------------------------------
PM     *******                       **********

BRIDGE
Drivers are rude, such attitudes
d:|--7---
A:|--7---
E:|--5---

e:|------------------------------------------------------------------
B:|------------------------------------------------------------------
G:|-14--14-14--13-13---12--12----9--9--8--8--7---5--5----------------
D:|-14--14-14--13-13---12--12----9--9--8--8--7---5--5--7--7----------
A:|-12--12-12--11-11---10--10----7--7--6--6--5---3--3--7--7----------
E:|-----------------~---------~------------------------5--5----------

OUTRO:
e:|------------------------------------------------------------------
B:|------------------------------------------------------------------
G:|--7-------------9-------------9--9--9--9--9--9--9--9--9::---------
D:|--7-------------9-------------9--9--9--9--9--9--9--9--9::-~~~-----
A:|--5--5-5-5-5-5--7--7-7-7-7-7--7--7--7--7--7--7--7--7--7::---------
E:|------------------------------------------------------------------
        *********     *********                             

WELL WELL WELL... YET ANOTHER SMASH SONG COMPLETED... GOD IM A LOSER...
THE ENDING MAY NOT BE RIGHT BUT IM SURE EVERYTHING ELSE IS PRETTY DAMN CLOSE!


             ----DAN C

QUESTIONS COMMENTS CORRECTIONS ETC.  TALK TO ME AT danc_accuratetabs@yahoo.com
THIS TAB WAS MADE FOR ULTIMATE-GUITAR.COM IF FOUND ELSEWHERE REPORT IT!!!
comments
print report bad tab
I want to post or [tab]
guest
You may want to rate the tab now too:
select rating
Please do not post tabs as comments. Select "correction" instead!