Oops, an error
Loading. Please wait.

Beheaded Tab

version 2
version 2

Whole song

Interactive

1,764 views 1 this week
4 commentsread comments
1 2 3 4 5
accurate
x 6
add to favorites
launch autoscroll
font size
0
reset
how to read this tab
guitar tuner
Tab Pro tools
  • play this tab
  • loop segment
  • change instrument
  • show fretboard
  • metronome
×
Best way to learn
"Beheaded"
Autoscroll
slow
fast
+/-
esc
set tempo
stop
The Offspring
Beheaded
The Offspring
1989

This song is from The Offspring's 1989 debut album, not one of their popular ones
but I love it nonetheless.

This is my first tab and I'm only 15, but I think it should be fine


Intro
E-5-55-3-33-666-5-55-|
B-3-33-3-33-333-3-33-|
G--------------------|        X 4
D--------------------|
A--------------------|
E--------------------|

Verse #1                     X 2
E-------------------------------|------------------------|
B-------------------------------|------------------------|
G-7--7-7--5--5-5--8-8-x--7--7-7-|------------------------|         X 2
D-7--7-7--5--5-5--8-8-x--7--7-7-|--5---8---7-------------|
A-5--5-5--3--3-3--6-6-x--5--5-5-|--5---8---7-------------|
E-------------------------------|--3---6---5-------------|
  Mommy doesn't have her ..      ..that's alright man...


Chorus
E------------------------------|-------------|
B-7---5------------------------|-7---5-------|
G-7---5----7--7--8-8-8--7--7-7-|-7---5----7--|
D-5---3----7--7--8-8-8--7--7-7-|-5---3----7--|
A----------5--5--6-6-6--5--5-5-|----------5--|
E------------------------------|-------------|
  Beheadeeeed.Watch it spurt...  Bloody mess..


Play Intro X 2

Play Verse 1 X 2

Play Chorus X 2 (last power chord you play here also counts as first power chord in 
#2/Interlude)


Verse #2/ Interlude
E------------------------------------|
B------------------------------------|
G-7-7-7-x-10-10-x-9-x--9--8-x--8-8-8-|     X 10
D-7-7-7-x-10-10-x-9-x--9--8-x--8-8-8-|
A-5-5-5-x--8--8-x-7-x--7--6-x--6-6-6-|
E------------------------------------|

Bridge
E-----------|
B-----------|
G-7---10--9-|     X 6
D-7---10--9-|
A-5----8--7-|
E-----------|

Play Intro X 2

Play Verse 1 X 2

Play Chorus X 1


Finish with
E---------------------------------------------------------|
B-7--7-7--7-7-x-5--5-5--5-5-------------------------------|
G-7--7-7--7-7-x-5--5-5--5-5--------7--7--8-8-8--7--7-7-7-7|     X 2
D-5--5-5--5-5-x-3--3-3--3-3--------7--7--8-8-8--7--7-7-7-7|
A----------------------------------5--5--6-6-6--5--5-5-5-5|
E---------------------------------------------------------|
comments
print report bad tab
4 comments total. Showing first comments.
+1 reply
offspring_punk wrote on April 29 2009, 08:46 am

.

0 reply
zhoutai182 wrote on July 29 2009, 09:25 pm

there are wrong chords, isn't the same to play:
E---------------------------------------------------------|
B-7--
G-7--
D-5--
A----
E----
instead of:
E---
B---
G-12-
D-12-
A-10-
E----

0 reply
szweden.offic wrote on February 15 2015, 02:23 pm

Hi man great tab but i think the chorus part the low power chords are the regular ones: those
B-8---6------------------------|-7---5-------|
G-7---5----7--7--8-8-8--7--7-7-|-7---5----7--|
D-5---3----7--7--8-8-8--7--7-7-|-5---3----7--|
^ ^

I want to post or [tab]
guest
You may want to rate the tab now too:
select rating
Please do not post tabs as comments. Select "correction" instead!