Oops, an error
Loading. Please wait.
We have an official Burn It Up tab made by UG professional guitarists. Check out the tab »
×
941 views 3 this week
no commentswrite comment
1 2 3 4 5
1 last vote to show rating
add to favorites
×
Save as Personal and add changes to this tab that will be seen only by you. Learn more ›
×
You can save this tab as Personal to edit and correct it or add notes. All changes will be seen only by you. Learn more »
launch autoscroll
font size
0
reset
guitar tuner
backing track
0:00
0:00
edit
Autoscroll
slow
fast
+/-
esc
set tempo
stop
Author
+++++++++++++++++++++++++++++
| The Offspring- Burn It Up |
+++++++++++++++++++++++++++++

Tuning: EADG

Intro
1.
G|-------------|
D|-------------|
A|-------------|--x2
E|-0x-0x-0x-0x-|

Verse
"Yeah I think Im burning up inside..."
2.
G|-------------|
D|-------------|
A|-------------|--x2
E|-0x-0x-0x-0x-|

"Gonna light up..."
3.
G|-------------|
D|-------------|
A|-0x-0x-0x-0x-|
E|-------------|

Verse
"Ill drive on by your yard..."
4.
G|--------------------------------------------------------------------------------|
D|-22-3202-320-2222-2222--22-3202-320-2222-2222-----------------------22-3202-320-|
A|--------------------------------------------------------------------------------|
E|----------------------------------------------55-6535-653-5555-5555-------------|

Pre-Chorus
"Ignition, they call it an obsession..."
5.
G|-------------------------------------|
D|-22-200-022-200-022-200-022222-22222-|
A|-------------------------------------|
E|-------------------------------------|

Chorus
"Woah, yeah Im a pyro..."
6.
G|--------------------------------------------------------------------------|
D|--------------------------------------------------------------------------|
A|-0000-3333------------0000-3333------------0000-3333------------0000-3333-|
E|-----------0000-0000------------0000-0000------------0000-0000------------|

Outro
7.
G|---------------|
D|-22-3202-3202x-|
A|---------------|
E|---------------|

Verse
"Tonight this hood will be a pyre..."
8.
G|---------------------------------------------------------------------------------|
D|-22-3202-3202x----22-3202-3202x----22-3202-3202x---------------------22-3202-320-|
A|---------------------------------------------------------------------------------|
E|----------------------------------------------------55-6535-6535x----------------|

"I want to make a tiki torch..."
9.
G|--------------------------------------------------------------------------------|
D|-22-3202-320-2222-2222--22-3202-320-2222-2222-----------------------22-3202-320-|
A|--------------------------------------------------------------------------------|
E|----------------------------------------------55-6535-653-5555-5555-------------|

Pre-Chorus
"Ignition, they call it an obsession..."
10.
G|-------------------------------------|
D|-22-200-022-200-022-200-022222-22222-|
A|-------------------------------------|
E|-------------------------------------|

Chorus
"Woah, yeah Im a pyro..."
11.
G|------------------------------------------------------------------------------------|
D|------------------------------------------------------------------------------------|
A|-0000-3333------------0000-3333------------0000-3333------------0000-3333-----------|
E|-----------0000-0000------------0000-0000------------0000-0000------------0~--------|

Bridge
12.
G|----------------------------------------------------------------------|
D|-2~--00h2-2~-2--55h7-7~-7--00h2-2~-2--55h7-7~-7--00h2-2~-2--55h7-7~-7-|
A|----------------------------------------------------------------------|
E|----------------------------------------------------------------------|

Keep playing that for some time...

Pre-Chorus
"Ignition, they call it an obsession..."
13.
G|-------------------------------------|
D|-22-200-022-200-022-200-022222-22222-|
A|-------------------------------------|
E|-------------------------------------|

Chorus
"Woah, yeah Im a pyro..."
14.
G|------------------------------------------------------------------------------------|
D|------------------------------------------------------------------------------------|
A|-0000-3333------------0000-3333------------0000-3333------------0000-3333-----------|
E|-----------0000-0000------------0000-0000------------0000-0000------------0000-0000-|

Outro
15.
G|---------------|
D|-22-3202-3202x-|
A|---------------|
E|---------------|

Lyrics:

I think I'm burning up inside
I think I'll take a little ride
I'm gonna light up everything in sight
I'll drive on by your yard
And throw a Molotov cocktail at your car
Then another in the local bar

Ignition
They call it an obsession but I think it's kinda bitchen'
I think it's kinda neat
Yeah, I'm a pyro
I wanna burn it up
Yeah, I'm a pyro

Tonight this 'hood will be a pyre
I'm gonna set your house on fire
I'll dance around the pretty flames
Such a wonderful game

I want to make a tiki torch
I'm gonna throw it on your porch
Then I'm gonna run away
And come back another day
So many houses, so little time
So many reasons, I'm not a crime
I'd like to set you up
I'd like to set you up

+++++++++++++++++++++++++++++++++
| RaiLeff                       |
| Underground__Dora@Hotmail.Com |
+++++++++++++++++++++++++++++++++

            
            
Suggest correction
Creating personal tab
Creating personal tab
You can edit any tab online and save it as your Personal.

You can edit, replace or remove any tab part or add personal notes – all changes will be seen only by you.

Personal tabs can be accessed anytime from any device, even offline.
Learn more »
Give kudos to tab author, rate the tab!
1 2 3 4 5
comments
print report bad tab
guest
You may want to rate the tab now too:
select rating
Wanna post a correction for this tab? Suggest correction