Oops, an error
Loading. Please wait.

Coming For You bass

version 2
version 2

Whole song

  • Simply more accurate than v.1. Propably not 100% a... Show more

Interactive

184 views 3 this week
no commentswrite comment
1 2 3 4 5
3 more votes to show rating
add to favorites
×
Save as Personal and add changes to this tab that will be seen only by you. Learn more ›
×
You can save this tab as Personal to edit and correct it or add notes. All changes will be seen only by you. Learn more »
launch autoscroll
font size
0
reset
guitar tuner
edit
Autoscroll
slow
fast
+/-
esc
set tempo
stop
Author
About this tab version
Simply more accurate than v.1. Propably not 100% accurate, but should be close. Based on the studio version and a bunch of live footage. Was this info helpful? Yes No
Coming For You by The Offspring
From the single Coming For You (2015)
Written by Dexter Holland
All rights belong to their respective owners

Tabbed by Jaakko Karppinen


Based on the studio recording and a bunch of live footage. Propably not 100% accurate, but close enough!

Just a basic and fun-to-play punk bass line. Wasn't that difficult to transcribe, though a couple of parts
caused some headache. Especially those weird bass sounds/fills during the guitar solo. But apart from that,
nothing special really. Enjoy!


Legend:   x = muted note   . = accent note   R = rest   \ = slide down   / = slide up



Main Riff (bass comes in 0:06)
||------------------------------------------------------||
||-o-----------------------------------------5--------o-||
||-o-----7-----7-----7-----7-----7-----7-------5---7--o-|| 4X
||---0-----0-----0-----0-----0-----0-----3--------------||


Mid-Verse
|--------------------------------------------------------------------------------------------------|
|--------------------------------------------------------------------------------------------------|
|-------------------------5---5-5---5-5---5-5---5-------7-----------7-----------7-----5---0-5---7--|
|-3---3-3---3-3---3-3---3-------------------------0---0-------0---0-------0---0--------------------|


Main Riff
||------------------------------------------------------||
||-o-----------------------------------------5--------o-||
||-o-----7-----7-----7-----7-----7-----7-------5---7--o-||
||---0-----0-----0-----0-----0-----0-----3--------------||


Pre-Chorus
|--------------------------------------------------------------------------------------------------|
|--------------------------------------------------------------------------------------------------|
|-------------------------5---5-5---5-5---5-5---5-------7-----------7-----7-----2-----3-----5------|
|-3---3-3---3-3---3-3---3-------------------------0---0-------0---0--------------------------------|


Chorus 1
||------------------------------------------------------||
||-o--------------------------------------------------o-||
||-o-------------3---3-3---3-------------5---5-5---5--o-|| 3X
||---0---0-0---0-------------3---3-3---3----------------||

|--------------------------------------------------|
|--------------------------------------------------|
|-2---2-2---2-2---2-2---2-2---2-2---2-5---5-5---5--|
|--------------------------------------------------|


Pre-Verse
|--------------------------------------------------------------------------------------------------|
|-----------------------------------------5--------------------------------------------------------|
|-----7-----7-----7-----7-----7-----7-------5---7-----7-----7-----7-----7-----7-----7-5---0-5---7--|
|-0-----0-----0-----0-----0-----0-----3-----------0-----0-----0-----0-----0-----0------------------|


Main Riff
||------------------------------------------------------||
||-o-----------------------------------------5--------o-||
||-o-----7-----7-----7-----7-----7-----7-------5---7--o-||
||---0-----0-----0-----0-----0-----0-----3--------------||


Mid-Verse
|--------------------------------------------------------------------------------------------------|
|-----5--------------------------------------------------------------------------------------------|
|-------------------------5---5-5---5-5---5-5---5-------7-----------7-----------7-----5---0-5---7--|
|-3-----3---3-3---3-3---3-------------------------0---0-------0---0-------0---0--------------------|


Main Riff Variation (when playing live, Greg plays the Main Riff normally without rest)
|--------------------------------------------------------------------------------------------------|
|-----------------------------------------5--------------------------------------------------------|
|-----7-----7-----7-----7-----7-----7-------5---7-----7-----7-----7-----7--------------------------|
|-0-----0-----0-----0-----0-----0-----3-----------0-----0-----0-----0-----0---R--------------------|


Pre-Chorus
|--------------------------------------------------------------------------------------------------|
|--------------------------------------------------------------------------------------------------|
|-------------------------5---5-5---5-5---5-5---5-------7-----------7-----7-----2-----3-----5------|
|-3---3-3---3-3---3-3---3-------------------------0---0-------0---0--------------------------------|


Chorus 2
||------------------------------------------------------||
||-o--------------------------------------------------o-||
||-o-------------3---3-3---3-------------5---5-5---5--o-|| 3X
||---0---0-0---0-------------3---3-3---3----------------||

|--------------------------------------------------|
|--------------------------------------------------|
|-2---2-2---2-2---2-2---2-2---2-2---2-5---5-5---5--|
|--------------------------------------------------|

||------------------------------------------------------||
||-o--------------------------------------------------o-||
||-o-------------3---3-3---3-------------5---5-5---5--o-|| 3X
||---0---0-0---0-------------3---3-3---3----------------||

|--------------------------------------------------------------------------------------------------|
|--------------------------------------------------------------------------------------------------|
|-2---2-2---2-2---2-2---2-2---2-2---2-2---2-2---2-3---3-3---3-----3-3---3-5---5-5---5-----5-5---5--|
|-------------------------------------------------------------3-----------------------5------------|


Bridge
|--------------------------------------------------------------------------------------------------|
|--------------------------------------------------------------------------------------------------|
|-7--\--R---------------------------------------5-7---7-7---5-0---0-0---5-7---7-7---5-0---0-0---0--|
|--------------------------------------------------------------------------------------------------|


Guitar Solo
|--------------------------------------------------------------------------------------------------|
|--------------------------------------------------------------------------------------------------|
|-3---R-3---R-3---3-3---3-5---R-5---R-5---5-5---5-7---R-7---R-7---7-7---7-2---R-2---R-2---2-2---2--|
|--------------------------------------------------------------------------------------------------|

(some weird bass fills here... you can try to listen and figure them out yourself)
|--------------------------------------------------------------------------------------------------|
|--------------------------------------------------------------------------------------------------|
|-3---R-3---R-3---3-3---3-5---R-5---R-5---R-5---R-7-----7-----7-----7-----7------------------------|
|-------------------------------------------------------------------------------5-----3-----2------|

|--------------------------------------------------------------------------------------------------|
|--------------------------------------------------------------------------------------------------|
|-3-----3---3-------3---3-5-----5---5-------5---5-7---7-7---7-7---7-7---7-2---2-2---2-2---2-2---2--|
|-------------3-----------------------5------------------------------------------------------------|

|--------------------------------------------------|
|--------------------------------------------------|
|-3---3-3---3-3---3-3---3-5---5-5---5-5---5-5----5-|
|--------------------------------------------------|


Interlude (10's, not 1's or 0's)
||------------------------------------------------------------------------------------------------------||
||-o--------------------------------------------------------------------------------------------------o-||
||-o-7---7-7---7-7---7-7---7-7---7-7---7-7---7-7---7-10--1010--1010--1010--105---5-5---5-5---5-5---5--o-||
||------------------------------------------------------------------------------------------------------||

|-------------------------------------------------------------------------------------------------|
|-------------------------------------------------------------------------9--\--R-----------------|
|-2---2-2---2-2---2-2---2-2---2-2---2-2---2-2---2-2---2-2---2-2---2-2---2-------------------------|
|-------------------------------------------------------------------------------------------------|


Chorus 3
||------------------------------------------------------||
||-o--------------------------------------------------o-||
||-o-------------3---3-3---3-------------5---5-5---5--o-|| 3X
||---0---0-0---0-------------3---3-3---3----------------||

|--------------------------------------------------|
|--------------------------------------------------|
|-2---2-2---2-2---2-2---2-2---2-0---0-------5---5--|
|-------------------------------------3---3--------|

||------------------------------------------------------||
||-o--------------------------------------------------o-||
||-o-------------3---3-3---3-------------5---5-5---5--o-|| 3X
||---0---0-0---0-------------3---3-3---3----------------||

|--------------------------------------------------------------------------------------------------|
|--------------------------------------------------------------------------------------------------|
|-2---2-2---0-2---2-2---2-2---2-2---2-2---2-2---2-3---3-3---3-----3-3---3-5---5-5---5-----5-5---5--|
|-------------------------------------------------------------3-----------------------5------------|

|--------------------------------------------------------------------------------------------------|
|-----------------------7-9---9-9---9-5---5-5---5--------------------------------------------------|
|-7---7-7---7-7---7-7-----------------------------3---3-3---3-----3-3---3-5---5-5---5-----5-5---5--|
|-------------------------------------------------------------3-----------------------5------------|


Outro
|--------------------------------------------------------------------------------------------------|
|--------------------------------------------------------------------------------------------------|
|-7--\--R---------------------------------------5-7---7-7---5-0---0-0---5-7---7-7---5-0---0-0---5--|
|--------------------------------------------------------------------------------------------------|

|--------------------------------------------------------------------------------------------------|
|--------------------------------------------------------------------------------------------------|
|-7---7-7---5-0---0-0---5-7---7-7---5-0---0-0---5-7---7-7---5-0---0-0---5-7---7-5---7---\---R------|
|--------------------------------------------------------------------------------------------------|
Suggest correction
Creating personal tab
Creating personal tab
You can edit any tab online and save it as your Personal.

You can edit, replace or remove any tab part or add personal notes – all changes will be seen only by you.

Personal tabs can be accessed anytime from any device, even offline.
Learn more »
Give kudos to tab author, rate the tab!
1 2 3 4 5
comments
print report bad tab
guest
You may want to rate the tab now too:
select rating
Wanna post a correction for this tab? Suggest correction