Oops, an error
Loading. Please wait.

Coming For You tab

version 3
version 3

Whole song

Interactive

298 views 1 this week
no commentswrite comment
1 2 3 4 5
2 more votes to show rating
add to favorites
×
Save as Personal and add changes to this tab that will be seen only by you. Learn more ›
×
You can save this tab as Personal to edit and correct it or add notes. All changes will be seen only by you. Learn more »
launch autoscroll
font size
0
reset
how to read this tab
guitar tuner
edit
Autoscroll
slow
fast
+/-
esc
set tempo
stop
Author
Tabbed by: Charonacle
E-mail: nope
Tuning: Standard

COMING FOR YOU
The Offspring

Note: I added the bass licks in absence of guitar parts for the verses for timing and personal preference.

 INTRO (standard tuning, EADGBE)         VERSE
|-----------------|----------------| x2 |-----------------|----------------| x2
|-----------------|----------------|    |-----------------|----------------|
|-----------------|-----------10-5-|    |-----------------|-----------10-5-|
|-0-0-0-0-0-0-0-0-|-0-0-0-0-0------|    |-0-0-0-0-0-0-0-0-|-0-0-0-0-0------|
                                          Time to go and get our kicks
                                            Dropping out and getting in the mix now

|------------------------|-----------------|---------------|------------------|
|------------------------|-----------------|---------------|------------------|
|-12---12-12-12-12-12-12-|-7---7-7-7-7-7-7-|-----9-------9-|-----9---7-7-7-9~-|
|-12---12-12-12-12-12-12-|-7---7-7-7-7-7-7-|-----9-------9-|-----9---7-7-7-9~-|
|-10---10-10-10-10-10-10-|-5---5-5-5-5-5-5-|-x-x-7---x-x-7-|-x-x-7---5-5-5-7~-|
|------------------------|-----------------|-x-x-----x-x---|-x-x--------------|
  Woooah-oh-oho    Hey, Hey, Hey, Hey!

|-----------------|----------------| x2
|-----------------|----------------|
|-----------------|-----------10-5-|
|-0-0-0-0-0-0-0-0-|-0-0-0-0-0------|
  Here in the backroom, nothing to do
    We’re not bored, we’re just sick of you, yeah

|------------------------|-----------------|---------------|------------|
|------------------------|-----------------|---------------|------------|
|-12---12-12-12-12-12-12-|-7---7-7-7-7-7-7-|-----9-------9-|-9--4--5--7-|
|-12---12-12-12-12-12-12-|-7---7-7-7-7-7-7-|-----9-------9-|-9--4--5--7-|
|-10---10-10-10-10-10-10-|-5---5-5-5-5-5-5-|-x-x-7---x-x-7-|-7--2--3--5-|
|------------------------|-----------------|-x-x-----x-x---|------------|
  Woooah-oh-oho    Yeah, sick of you    Hey, Hey, Hey, Hey!

 CHORUS
|---------------------------------------------| x3 |----------------------------|
|---------------------------------------------|    |------------------15--15-17-|
|---9---9----------------12----12-------------|    |------------------17--17-19-|
|---9---9----10----10----12----12----12----12-|    |-9--9--9--9--9--9-fb--fb-fb-| *(or just say
|-x-7---7--x-10----10--x-10----10--x-12----12-|    |-9--9--9--9--9--9-----------|  Donkey Kong 
|-x--------x--8-----8--x-----------x-10----10-|    |-7--7--7--7--7--7-----------|  like everyone else)
  Break down, take down, now it’s on    Sold out, blow out, don’t get caught*
    Well, no! Hell, no! What you gonna do    When they keep coming for you

 PRE-VERSE                                            VERSE (bass, standard tuning, EADG)
|--0--0--|--0-0--0--|--0--0--|--0-0--0------------|  |-----------------|----------------| x2
|--0--0--|--0-0--0--|--0--0--|--0-0--0--15--15-17-|  |-----------------|----------------|
|--------|----------|--------|----------17--17-19-|  |-----------------|-----------10-5-|
|--------|----------|--------|----------fb--fb-fb-|  |-0-0-0-0-0-0-0-0-|-0-0-0-0-0------|
|--------|----------|--------|--------------------|    See the shadows marching on
|--------|----------|--------|--------------------|      Yesterday’s dreams are dead and gone

|------------------------|-----------------|---------------|-----------------|
|------------------------|-----------------|---------------|-----------------|
|-12---12-12-12-12-12-12-|-7---7-7-7-7-7-7-|-----9-------9-|-----9---7-7-7-9-|
|-12---12-12-12-12-12-12-|-7---7-7-7-7-7-7-|-----9-------9-|-----9---7-7-7-9-|
|-10---10-10-10-10-10-10-|-5---5-5-5-5-5-5-|-x-x-7---x-x-7-|-x-x-7---5-5-5-7-|
|------------------------|-----------------|-x-x-----x-x---|-x-x-------------|
  Woooah-oh-oho    Dead and gone    Hey, Hey, Hey, Hey!

|--0--0--|--0-0--0--|--0--0--|--0-0--0-|
|--0--0--|--0-0--0--|--0--0--|--0-0--0-|
|--------|----------|--------|--9-9--9-|
|--------|----------|--------|--9-9--9-|
|--------|----------|--------|--7-7--7-|
|--------|----------|--------|---------|
  Hear the cheering up above
    Down below is push and shove

|------------------------|-----------------|---------------|------------|
|------------------------|-----------------|---------------|------------|
|-12---12-12-12-12-12-12-|-7---7-7-7-7-7-7-|-----9-------9-|-9--4--5--7-|
|-12---12-12-12-12-12-12-|-7---7-7-7-7-7-7-|-----9-------9-|-9--4--5--7-|
|-10---10-10-10-10-10-10-|-5---5-5-5-5-5-5-|-x-x-7---x-x-7-|-7--2--3--5-|
|------------------------|-----------------|-x-x-----x-x---|------------|
  Woooah-oh-oho      Yeah push and shove    Hey, Hey, Hey, Hey!
 
 CHORUS
|---------------------------------------------| x3 |------------------------|
|---------------------------------------------|    |------------------------|
|---9---9----------------12----12-------------|    |-------------------7--7-|
|---9---9----10----10--x-12----12----12----12-|    |-9--9--9--9--9--9--7--7-|
|-x-7---7--x-10----10--x-10----10--x-12----12-|    |-9--9--9--9--9--9--5--5-|
|-x--------x--8-----8--------------x-10----10-|    |-7--7--7--7--7--7-------|
  Break down, take down, now it’s on    Sold out, blow out, don’t get caught
    Well, no! Hell, no! What you gonna do    When they keep coming for you
|---------------------------------------------| x3 |------------------------|-----------------|
|---------------------------------------------|    |------------------------|-----------------|
|---9---9----------------12----12-------------|    |------------------------|-5-5-5-5-7-7-7-7-|
|---9---9----10----10--x-12----12----12----12-|    |-9--9--9--9--9--9--9--9-|-5-5-5-5-7-7-7-7-|
|-x-7---7--x-10----10--x-10----10--x-12----12-|    |-9--9--9--9--9--9--9--9-|-3-3-3-3-5-5-5-5-|
|-x--------x--8-----8--------------x-10----10-|    |-7--7--7--7--7--7--7--7-|-----------------|
  Bet some, get some, knock you down    Alone now, show down, kiss the ground
    Well, no! Hell, no! What you gonna do    Lights out, cut them in two, they’ll be coming for you

 BRIDGE (strike first note hard, slowly build up volume the first two sections)
|---------------|---------------|-----------------|----------------------|
|---------------|---------------|-----------------|----------------------|
|-9~9-9-7-------|-9-9-9-7-------|-7/9-9-9-7-------|-7/9-9-9-7-------(11)-| (solo starts here)
|-9~9-9-7-7-7-7-|-9-9-9-7-7-7-7-|-7/9-9-9-7-7-7-7-|-7/9-9-9-7-7-7-7------|
|-7~7-7-5-7-7-7-|-7-7-7-5-7-7-7-|-5/7-7-7-5-7-7-7-|-5/7-7-7-5-7-7-7------|
|---------5-5-5-|---------5-5-5-|-----------5-5-5-|-----------5-5-5------|
  (Dexter yells some gibberish here)

 SOLO
|---------------|---------------|---------------|---------------|---------------|------------------|
|---------------|---------------|---------------|---------------|---------------|------------------|
|-12~-9~-12~-9~-|-12~--14-11~~~-|-12~-9~-12~-9~-|-12~--14-11~~~-|-12~-9~-12~-9~-|-12~--14-11h12p11-|
|---------------|---------------|---------------|---------------|---------------|------------------|
|---------------|---------------|---------------|---------------|---------------|------------------|
|---------------|---------------|---------------|---------------|---------------|------------------|
|               |               |               |               |               |                  |
|---------------|---------------|---------------|---------------|---------------|------------------|
|---------------|---------------|---------------|---------------|---------------|------------------|
|--5--5---5--5--|--7--7---7--7--|--9--9---9--9--|--4--4---4--4--|--5--5---5--5--|--7--7---7--7-----|
|--5--5---5--5--|--7--7---7--7--|--9--9---9--9--|--4--4---4--4--|--5--5---5--5--|--7--7---7--7-----|
|--3--3---3--3--|--5--5---5--5--|--7--7---7--7--|--2--2---2--2--|--3--3---3--3--|--5--5---5--5-----|
|---------------|---------------|---------------|---------------|---------------|------------------|

|--------------------|-----------------|-12--12--12------|-15fb--15--12----|
|--------------------|--------------12-|-15--15--15~r-12-|--------------12-|
|-9----12h14p12-14fb-|-12-9p7h9~-------|-fb--fb--fb~-----|-----------------|
|----9---------------|-----------------|-----------------|-----------------|
|--------------------|-----------------|-----------------|-----------------|
|--------------------|-----------------|-----------------|-----------------|
|                    |                 |                 |                 |
|--------------------|-----------------|-----------------|-----------------| (The Rhythm here
|--------------------|-----------------|-----------------|-----------------|  is supposed to
|-9--9--9--------9---|--9--9----9----9-|--5---5---5----5-|--7-----7---7--7-|   be steady, dur)
|-9--9--9--------9---|--9--9----9----9-|--5---5---5----5-|--7-----7---7--7-|
|-7--7--7--------7---|--7--7----7----7-|--3---3---3----3-|--5-----5---5--5-|
|--------------------|-----------------|-----------------|-----------------|

|-12--12--12------|-----------------|-12--12--12------|-15--15--15-10/12~-|
|-15--15--15~r-12-|-12-----------12-|-15--15--15~r-12-|-fb--fb--fb--------|
|-fb--fb--fb------|-14--12\11/12----|-fb--fb--fb------|-------------------|
|-----------------|-fb--------------|-----------------|-------------------|
|-----------------|-----------------|-----------------|-------------------|
|-----------------|-----------------|-----------------|-------------------|
|                 |                 |                 |                   |
|-----------------|-----------------|-----------------|-------------------|
|-----------------|-----------------|-----------------|-------------------|
|--9---9---9----9-|--4---4-----4--4-|--5---5---5----5-|--7---7---7---7----|
|--9---9---9----9-|--4---4-----4--4-|--5---5---5----5-|--7---7---7---7----|
|--7---7---7----7-|--2---2-----2--2-|--3---3---3----3-|--5---5---5---5----|
|-----------------|-----------------|-----------------|-------------------|
 
 PRE-CHORUS
|-----------------|-----------------|------------------------|-----------------|
|-----------------|-----------------|------------------------|-----------------|
|-----------------|-----------------|------------------------|-----------------|
|-9---9-9-9-9-9-9-|-9-9-9-9-9-9-9-9-|-12---12-12-12-12-12-12-|-7---7-7-7-7-7-7-|
|-7---7-7-7-7-7-7-|-7-7-7-7-7-7-7-7-|-10---10-10-10-10-10-10-|-5---5-5-5-5-5-5-|
|-----------------|-----------------|------------------------|-----------------|

|--0--0--|--0-0--0--|--0--0--|--0-0--0-|----------|----------|------------------|---------|
|--0--0--|--0-0--0--|--0--0--|--0-0--0-|----------|----------|------------------|---------|
|--------|----------|--------|---------|----------|-88888888-|-1111111111111111-|---------|
|--------|----------|--------|---------|-99999999-|-xxxxxxxx-|--x-x-x-x-x-x-x-x-|-9-------|
|--------|----------|--------|---------|-xxxxxxxx-|-66666666-|--9-9-9-9-9-9-9-9-|-9-------|
|--------|----------|--------|---------|-77777777-|----------|------------------|-7-------|
  Hey Hey Hey Hey  Woooah-oh-oho  Hey Hey Hey Hey Hey Hey   What’s up, fuck you up

 CHORUS
|---------------------------------------------| x3 |------------------------|
|---------------------------------------------|    |------------------------|
|---9---9----------------12----12-------------|    |-------------------7--7-|
|---9---9----10----10--x-12----12----12----12-|    |-9--9--9--9--9--9--7--7-|
|-x-7---7--x-10----10--x-10----10--x-12----12-|    |-9--9--9--9--9--9--5--5-|
|-x--------x--8-----8--------------x-10----10-|    |-7--7--7--7--7--7-------|
  Break down, take down, now it’s on    Sold out, blow out, don’t get caught
    Well, no! Hell, no! What you gonna do    They just keep coming for you
|---------------------------------------------| x3 |------------------------|-----------------|
|---------------------------------------------|    |------------------------|-----------------|
|---9---9----------------12----12-------------|    |------------------------|-5-5-5-5-7-7-7-7-|
|---9---9----10----10--x-12----12----12----12-|    |-9--9--9--9--9--9--9--9-|-5-5-5-5-7-7-7-7-|
|-x-7---7--x-10----10--x-10----10--x-12----12-|    |-9--9--9--9--9--9--9--9-|-3-3-3-3-5-5-5-5-|
|-x--------x--8-----8--------------x-10----10-|    |-7--7--7--7--7--7--7--7-|-----------------|
  Bet some, get some, knock you down    Alone now, show down, kiss the ground
    Well, no! Hell, no! What you gonna do    Lights out, cut them in two, they’ll be coming for you

 INTERLUDE
|-----------------|-----------------|-----------------|-15~~~~~~~~~~~~~-|
|-17--------------|-12--------------|-17~-------------|-fb--------------|
|-19~-----16------|-14--12--11~-----|-19------16------|-----------------|
|-fb--------------|-fb--------------|-fb--------------|-----------------|
|-----------------|-----------------|-----------------|-----------------|
|-----------------|-----------------|-----------------|-----------------|
|                 |                 |                 |                 |
|-----------------|-----------------|-----------------|-----------------|
|-----------------|-----------------|-----------------|-----------------|
|-9-9-9-9-9-9-9-9-|-9-9-9-9-9-9-9-9-|-5-5-5-5-5-5-5-5-|-7-7-7-7-7-7-7-7-|
|-9-9-9-9-9-9-9-9-|-9-9-9-9-9-9-9-9-|-5-5-5-5-5-5-5-5-|-7-7-7-7-7-7-7-7-|
|-7-7-7-7-7-7-7-7-|-7-7-7-7-7-7-7-7-|-3-3-3-3-3-3-3-3-|-5-5-5-5-5-5-5-5-|
|-----------------|-----------------|-----------------|-----------------|
  They’ll be coming it's true    They’ll be coming for you

 OUTRO
|---------------|---------------| |-----------------| x5 |----------|
|---------------|---------------| |-----------------|    |----------|
|-9-9-9-7-------|-9-9-9-7-------| |-7/9-9-9-7-------|    |-7/9-7-9~-|
|-9-9-9-7-7-7-7-|-9-9-9-7-7-7-7-| |-7/9-9-9-7-7-7-7-|    |-7/9-7-9~-|
|-7-7-7-5-7-7-7-|-7-7-7-5-7-7-7-| |-5/7-7-7-5-7-7-7-|    |-5/7-5-7~-|
|---------5-5-5-|---------5-5-5-| |-----------5-5-5-|    |----------|

Legend:
* - Palm Mute
/ - Slide Up
\ - Slide Down
qb - Quarter Bend
hb - Half Bend
fb - Full Bend
r - Release
x - Muted Note, usually open string
~ - Vibrato

            
            
Suggest correction
Creating personal tab
Creating personal tab
You can edit any tab online and save it as your Personal.

You can edit, replace or remove any tab part or add personal notes – all changes will be seen only by you.

Personal tabs can be accessed anytime from any device, even offline.
Learn more »
Give kudos to tab author, rate the tab!
1 2 3 4 5
comments
print report bad tab
guest
You may want to rate the tab now too:
select rating
Wanna post a correction for this tab? Suggest correction